» » »

Laura Marling, Goodbye England Tabs (ver.1)

Artists:  A B C D E F G H I J K L M N O P Q R S T U V W X Y Z # 

Goodbye England Tabs (ver.1)

Laura Marling Tabs
 Rating:
4.3/5 (6 votes)
Goodbye England lessons Tabs too difficult? Try these video lessons and learn fast
1
                ---------------------------------------------------
 GOODBYE ENGLAND (COVERED IN SNOW) - Laura Marling
---------------------------------------------------

 
This is my first tab, so I hope it's easy to read.
Enjoy!


*Listen to the song to get the correct strumming.


Tuning: EAC#EBE
Capo 6


INTRO/VERSE:

 e|-------------------------------------------------|
 B|-------------------------------------------------|
 E|-------0-----------0-----------0-----------0-----|
C#|-3-----------3-----------3-----------3-----------|
 A|---4-------4---4-------4---4-------4---4-------4-|
 E|-5---5---5---5---5---5---5---5---5---5---5---5---|

 e|-------------------------------------------------|
 B|-------------------------------------------------|
 E|-------0-----------0-----------0-----------0-----|
C#|-0-----------0-----------0-----------0-----------|
 A|---0-------0---0-------0---0-------0---0-------0-|
 E|-2---2---2---2---2---2---2---2---2---2---2---2---|

 e|-------------------------------------------------|
 B|-------------------------------------------------|
 E|-------0-----------0-----------0-----------0-----|
C#|-1-----------1-----------1h3---------3-----------|
 A|---2-------2---2-------2-----------2---2-------2-|
 E|-0---0---0---0---0---0---0---0---0---0---0---0---|

 e|-------------------------------------------------|
 B|-------------------------------------------------|
 E|-------0-----------0-----------0-----------0-----|
C#|-0-----------0-----------0-----------0-----------|
 A|---0-------0---0-------0---0-------0---0-------0-|
 E|-0---0---0---0---0---0---0---0---0---0---0---0---|


You were so smart then in your jacket and coat 
My softest red scarf was warming your throat 
Winter was on us at the end of my nose 
But I never love England 
More than when covered in snow


BRIDGE: 

 e|-----------------------------------------------------------------------------|
 B|-----------------------------------------------0---------0--------0-------0--|
 E|---0-------------0--------0----------0---------0---------0--------0-------0--|
C#|---0-------------0--------0----------0---------1---------1--------1-------1--|
 A|---0-------------0--------0----------0---------2---------2--------2-------2--|
 E|---2-------------2--------3----------3---------------------------------------|
       A friend of mine..     Good to hear..  Believe in love even if set in fear



 e|----------------------------------------------------------------------------|
 B|-----------------------------------------------0--------0-----0-----0-------|
 E|----0----------0-------0---------0-------------0--------0-----0-----0-------|
C#|----0----------0-------0---------0-------------1--------1-----1-----1-------|
 A|----0----------0-------0---------0-------------2--------2-----2-----2-------|
 E|----2----------2-------3---------3------------------------------------------|
   I'll hold you there..   Set you straight.. I only believe.. frail..willing..
 e|----------------------------------------------------------------------------|
 B|----------------------------------------------------------------------------|
 E|------------0-----------0-----------0-----------0---------------------------|
C#|------0-----------0-----------0-----------0------------3--------------------|
 A|--------0-------0---0-------0---0-------0---0-------0----4------------------|
 E|------0---0---0---0---0---0---0---0---0---0---0---0----5---5----------------|
    To break.                                I will come back.. (to VERSE)


(BRIDGE)
But a friend of mine says it's good to hear 
That you believe in love even if set in fear 
Well I'll hold you there brother and 
Set you straight I wont make believe that love is frail 
And willing to break 

(VERSE)
I will come back here, bring me back when I'm old 
I want to lay here forever in the cold. 
I might be cold but I'm just skin and bones 
And I never love England More than when covered in snow

 e|---------------------------------------------------------------|
 B|----------------------------------------------------------0----|
 E|-------0-----------0-----------0-----------0--------0--0--0-0--|
C#|-1-----------1-----------1h3---------3--------------0--0--1-0--|
 A|---2-------2---2-------2-----------2---2-------2----0--0--2-0--|
 E|-0---0---0---0---0---0---0---0---0---0---0---0------------0----|
    Eng.......land          more than when covered in snow.



    [Riff 1]                          [Riff 2]
 e|--------------------------------|--------------------------------|
 B|--0--/--0----0--\--0----0---0---|--0--/--0----0--\--0----0---0---|
 E|--0--/--0----0--\--0----0---0---|--0--/--0----0--\--0----0---0---|
C#|--1--/--3----3--\--1----0---0---|--1--/--3----3--\--1----0---0---|
 A|--2--/--4----4--\--2----0---0---|--0--/--0----0--\--0----0---0---|
 E|------------------------0---0---|--2--/--4----4--\--2----0---0---| 


[Riff 1] [Riff 2] 

[Riff 1] I wrote my name in your book
[Riff 2] Only god knows why 
[Riff 1] And I bet you that he cracked a smile 
[Riff 2] And I'm clearing all the cr*p out of my room 
[Riff 1] Trying desperately to figure out what it is that makes me blue and I 
[Riff 2] Wrote an epic letter to you 
[Riff 1] And it's 22 pages front and back And it's too good to be used 
[Riff 2] And I tried to be a girl who likes to be used 
[Riff 1] I'm too good for that There's a mind under this hat and I 
[Riff 2] Called them all and told them I've got to move

 e|--------------------------------------|
 B|--------------------------------------|
 E|--0--0--0--0--0--0--0--0--0--0--0--0--|
C#|--0--0--0--0--0--0--0--0--0--0--0--0--|
 A|--0--0--0--0--0--0--0--0--0--0--0--0--|
 E|--5--5--5--4--4--4--2--2--2--0--0--0--|
   I'm out man,   It's too hard
   I'm on my own, It's too hard

 e|--------------------------------------|--------------|
 B|--------------------------------------|--0--0--0--0--|
 E|--0--0--0--0--0--0--0--0--0--0--0--0--|--0--0--0--0--|
C#|--0--0--0--0--0--0--0--0--0--0--0--0--|--1--1--1--1--|
 A|--0--0--0--0--0--0--0--0--0--0--0--0--|--2--2--2--2--|
 E|--5--5--5--4--4--4--2--2--2--0--0--0--|--------------|
     Feel     like     runnnnnnning x2      Running off
     We       will     keep     you x2      

 e|------------------------------------------------------------------------------|
 B|--0----0----0----0----0----0----0----0----0----0----0----0----------0-----0---|
 E|--0----0----0----0----0----0----0----0----0----0----0----0------0-0-0-0-0-0-0-|
C#|--1----1----1----1----1----1----1----1----1----1----1----1------0-0-2-0-0-2-0-|
 A|--2----2----2----2----2----2----2----2----2----2----2----2------0-0-1-0-0-1-0-|
 E|--------------------------------------------------------------------0-----0---|
     Little one safe from harm like an extra arm you are a part of us  


(to VERSE)

You were so smart then in your jacket and coat 
And my softest red scarf was warming your throat 
Winter will leave us, left the end of my nose 
So goodbye old England 'till next years snow

 e|-----------------------------------------------------------------|--0--|
 B|---------------------------------------------------------0-----0-|--0--|
 E|-------0-----------0-----------0-----------0---------0-0-0-0-0-0-|--0--|
C#|-1-----------1-----------1h3---------3---------------0-0-1-0-0-1-|--0--|
 A|---2-------2---2-------2-----------2---2-------2-----0-0-2-0-0-2-|--0--|
 E|-0---0---0---0---0---0---0---0---0---0---0---0-----------0-----0-|-----|
    Eng.......land                  till next year's   snow.




************************************

| /   slide up
| \   slide down
| h   hammer-on

************************************
            
Submit corrections

comments powered by Disqus
↑ Back to top | Laura Marling Tabs for Goodbye England. Lyrics for acoustic guitar and electric guitar. 1 Tablatures and chords are parodies/interpretations of the original songs. You may use it for private study, scholarship, research or language learning purposes only