» » »

Laura Marling, Failure Tabs (ver.2)

Artists:  A B C D E F G H I J K L M N O P Q R S T U V W X Y Z # 

Failure Tabs (ver.2)

Laura Marling Tabs
 Rating:
4.8/5 (18 votes)
Failure lessons Tabs too difficult? Try these video lessons and learn fast
                -------------------------------------------------------------------------------
                             FAILURE - Laura Marling
-------------------------------------------------------------------------------

Tuning:


INTRO 1:

E||--------------------|----------------------|
B||-----3---3---3---3--|-----3---3---3---3----|
G||-----0---0---0---0--|-----0---0---0---0----|
D||--------------------|----------------------|
A||--------------------|----------------------|
E||---3---3---3---3----|---3---3---3---3------|

INTRO 2:

-----------------------|----------------------|
--------3---3---3---3--|-----3---3---3---3----|
--------0---0---0---0--|-----0---0---0---0----|
-----------------------|----------------------|
-----------------------|---2---2---2----------|
------3---3---3---0----|---------------0------|

-----------------------|----------------------|
--------3---3---3---3--|------3---3--3---3----|
--------0---0---0---0--|-----0---0---0---0----|
-----------------------|----------------------|
-----------------------|---3---2---0---0------|
------2---2---2---2----|----------------------|

-----------------------|----------------------|
--------1---1---1---1--|-----3---3---3---3----|
--------0---0---0---0--|-----0---0---0---0----|
-----------------------|----------------------|
------0---0---0---0----|---2---2---2---2------|
-----------------------|----------------------|


-----------------------|----------------------|
--------3---3---3---3--|-----3---3---3---3----|
--------0---0---0---0--|-----0---0---0---0----|
-----------------------|----------------------|
------3---2---0--------|----------------------|
------------------0----|---3---3---3---3------|

-----------------------|
------3---3---3---3----|
------0---0---0---0----|
-----------------------|
-----------------------|
----3---3---3---3------|

VERSE 1 & 2 (Repeat Intro 2 twice):
(Singing starts from beginning of Intro 2)

He used to be a singer in a rock and roll band
He would write the songs and Id tremble at his hand, but oh, la laa
He lost poetic ethic and his songs were pathetic, and hes a failure now.

He used to be the life and soul of everyone around
Youd never catch him looking up and never see him down but oh, la laa
He couldnt raise a smile oh, not for a while and, hes a failure now.


BRIDGE:

E||--------------------|----------------------|
B||-----0---0---0---0--|-----0---0---0---0----|
G||-----0---0---0---0--|-----0---0---0---0----|
D||--------------------|---0---0---0---0------|
A||---3---3---3---3----|----------------------|
E||--------------------|----------------------|


CHORUS (Repeat x4): 

-----------------------|----------------------|
--------0---0---0---0--|-----0---0---0---0----|
--------0---0---0---0--|-----0---0---0---0----|
-----------------------|----------------------|
-----------------------|---2---2---2---2------|
------3---3---3---3----|----------------------|

-----------------------|----------------------|
--------0---0---0---0--|-----1---1---1---1----|
--------0---0---0---0--|-----0---0---0---0----|
-----------------------|---0---0---0---0------|
------3---3---3---3----|----------------------|
-----------------------|----------------------|

Dont cry child, youve got so much more to live for,
Dont cry child, youve got something I would die for,
And if it comes to the rain, just be glad youll smile again,
Cause so many dont
And so many go unnamed.


VERSE 3 & 4 (Repeat Intro 2 twice):
(Singing starts from beginning of Intro 2)

People push right past me shouting various claims
A preacher pushes me a side and asked to wash my sins i said no, la laa
If he made me in his image, then hes a failure too.

And I used to need a couple of people to keep my head down
Now I need a whole lot more to keep me on the ground but oh, la laa
I gave up something and I gave it up for nothing and I am failure now.


(BRIDGE)


(CHORUS)


(INTRO 2)

Note --> ending is different:

(...)

-----------------------|----------------------|
--------1---1---1---1--|-----3---3---3---3----|
--------0---0---0---0--|-----0---0---0---0----|
-----------------------|----------------------|
------0---0---0---0----|---2---2---2---2------|
-----------------------|----------------------|


-----------------------|----------------------|
--------3---3---3---3--|----------------------|
--------0---0---0---0--|----------------------|
-----------------------|----------------------|
------0---2---3--------|----------------------|
------------------0----|---3------------------|


THE END!
            
Submit corrections

comments powered by Disqus
↑ Back to top | Laura Marling Tabs for Failure. Lyrics for acoustic guitar and electric guitar. Tablatures and chords are parodies/interpretations of the original songs. You may use it for private study, scholarship, research or language learning purposes only