» » »

Laura Marling, Devil's Spoke Tabs (ver.1)

Artists:  A B C D E F G H I J K L M N O P Q R S T U V W X Y Z # 

Devil's Spoke Tabs (ver.1)

Laura Marling Tabs
 Rating:
4/5 (4 votes)
Devil's Spoke lessons Tabs too difficult? Try these video lessons and learn fast
1
                Laura Marling

Initially I thought it was in open d tuning but it sounds more accurate with the f# also
tuned down to D.

Open D5 tuning: D, A, D, D, A, d


Intro (initial chords change faster than in verse)

|-0-----0-----0---0---0--0--0---0-0--0-0--0-0--|
|-0-----0-----0---0---0--0--0---0-0--0-0--0-0--|
|-0-----0-----0---0---0--0--0---0-0--0-0--0-0--|
|-12----10----9---7---5--3--0---3-0--3-0--3-0--|
|-12----10----9---7---5--3--0---3-0--3-0--3-0--|
|-12----10----9---7---5--3--0---3-0--3-0--3-0--|


Verse

|-0-------------------------0-------------------------------------|
|-0-------------------------0-------------------------------------|
|-0-------------------------0-------------------------------------|
|-12------------------------10------------------------------------|
|-12------------------------10------------------------------------|
|-12------------------------10------------------------------------|
  I might be a part of this, ripple on water from a lonesome drip

--0-------------------------------0---------0----0--0---0-0--0-0--0-0--|
--0-------------------------------0---------0----0--0---0-0--0-0--0-0--|
--0-------------------------------0---------0----0--0---0-0--0-0--0-0--|
--9-------------------------------7---------5----3--0---3-0--3-0--3-0--|
--9-------------------------------7---------5----3--0---3-0--3-0--3-0--|
--9-------------------------------7---------5----3--0---3-0--3-0--3-0--|
 a fallen tree that witnessed me, I'm alone him and me


Play verse sequence again, second time strumming the chords at frets 7 & 5 just once and 
missing the first chord at the 3rd fret


Chorus

|-0----------0---0--0-------0-----------0---0--0-------|
|-0----------0---0--0-------0-----------0---0--0-------|
|-0----------0---0--0-------0-----------0---0--0-------|
|-5----------3---2--0-------5-----------3---2--0-------|
|-5----------3---2--0-------5-----------3---2--0-------|
|------------------------------------------------------|
 All of this can be broken, all of this can be broken

-0-------------0----0-----------0--------0---0------------0-0--0-0--0-0--|
-0-------------0----0-----------0--------0---0------------0-0--0-0--0-0--|
-0-------------0----0-----------0--------0---0------------0-0--0-0--0-0--|
-5-------------3----0-----------5--------3---0------------3-0--3-0--3-0--|
-5-------------3----0-----------5--------3---0------------3-0--3-0--3-0--|
--------------------0------------------------0------------3-0--3-0--3-0--|
Hold your devil by his spoke and spin him to the ground

Verse chords x2

Chorus


Break - open A string can be played on these sections.
(part 1)

|-0--0--0--0--0--0--0--0--|
|-4--5--4--2--4--5--4--2--|
|-0--0--0--0--0--0--0--0--|
|-4--5--4--2--4--5--4--2--|
|-------------------------|
|-------------------------|


(part 2)

|---------0----0--0----0----0-----0----0----0--0---|
|---------5----4--2----0----5-----4----2----0--5---|
|---------0----0--0----0----0-----0----0----0--0---|
|---------5----4--2----0----5-----4----2----0--5---|
|--------------------------------------------------|
|--------------------------------------------------|
  But the love of your life lives but lies no more


--0--0-----0---0---0--0---0--0----0-0--0-0--0-0---|
--4--2-----0---5---4--2---0--0----0-0--0-0--0-0---|
--0--0-----0---0---0--0---0--0----0-0--0-0--0-0---|
--4--2-----0---5---4--2---0--0----3-0--3-0--3-0---|
-----------------------------0----3-0--3-0--3-0---|
-----------------------------0----3-0--3-0--3-0---|
 and where she lay a flower grows

Play part 2 twice


(part 3)

|-4--------------5-----0------|
|-4--------------5-----0------|
|-4--------------5-----0------|
|-4--------------5-----0------|
|-4--------------5-----0------|
|-4--------------5-----0------|
   But I am your kee...per

Play part 3 four times


The song ends with the verse chords played three times - the last time ending with a 
single strum of the first open chord.
            
Submit corrections

comments powered by Disqus
↑ Back to top | Laura Marling Tabs for Devil's Spoke. Lyrics for acoustic guitar and electric guitar. 1 Tablatures and chords are parodies/interpretations of the original songs. You may use it for private study, scholarship, research or language learning purposes only