» » »

Lauper Cyndi, Time After Time Chords (ver.1)

Artists:  A B C D E F G H I J K L M N O P Q R S T U V W X Y Z # 

Time After Time Chords (ver.1)

Lauper Cyndi Tabs
 Rating:
4/5 (4 votes)
Time After Time lessons Tabs too difficult? Try these video lessons and learn fast
1
                I remembered it all, finally! Dunno the writing credits...

                  TIME AFTER TIME
                  ===============

Intro:  F   G   Em   F       G  Em  F

 F6   C      F6    C         F6   C        F6       C
Lyin' in my bed I hear the clock tick and think of you
 F6    C      F6 C       F6 C      F6      C
Caught up in circles confusion is nothing new
 F     G   Em    F             G      Em
Flash back warm nights almost left behind
 F   G       Em  F         F/G
Suitcase of memories, time after...

Sometimes you picture me I'm walkin' too far ahead
You're calling to me, I can't hear what you've said
You say go slow I fall behind
The second hand unwinds

             G                        Am
  If you're lost you can look and you will find me
  F    F/G    C
  Time after time
          G                         Am
  If you fall I will catch you I'll be waiting
  F    F/G    C
  Time after time

   F             G             Em              F
e|-------8---7---------5---3---------5---3---------------------
B|-----6-------------3-------------0-------6-5-3-5-------------
G|---5-------------4-------------0-----------------5-----------
D|-------------------------------------------------------------
A|-------------------------------------------------------------
E|-------------------------------------------------------------

e|-------8---7---------5---3---------5---3---------------------
B|-----6-------------3-------------0-------6-5-3-5------3-5----
G|---5-------------4-------------0-----------------5--------5--
D|-------------------------------------------------------------
A|-------------------------------------------------------------
E|-------------------------------------------------------------


After my picture fades and darkness has turned to grey
Watchin' through windows you're wondering if I'm okay
Secrets stolen from deep inside
The drum beats out of time

Chorus (2x)

<instr>

You say go slow I fall behind
The drum beats out of time

Chorus (2x)

F    F/G    C
Time after time...
Time after time...
Time after time...
# # # # # # # # # # # # # # # # # # # # # # # # # # # # # # # # # # # # # #
# Walter Ian Kaye: (602) 942-6390  FoxPro/Excel Programmer; Guitarist     #
# # # # # # # # # # # # # # # # # # # # # # # # # # # # # # # # # # # # # #
            
Submit corrections

comments powered by Disqus
↑ Back to top | Lauper Cyndi Chords for Time After Time. Lyrics for acoustic guitar and electric guitar. 1 Tablatures and chords are parodies/interpretations of the original songs. You may use it for private study, scholarship, research or language learning purposes only