>
 >
Vidddeno

Vidddeno Guitar Tabs

Laufer - Vidddeno chords, tabs, tablatures, lyrics

Guitar lessons | Add/correct | Request | Top 50 tabs Artists:  A B C D E F G H I J K L M N O P Q R S T U V W X Y Z 0-9

Vidddeno Guitar Tabs – Laufer

CD, Sheet music, Poster

Do you like Vidddeno? Share with your friends now
Tabs
-------------------------------------------------------------------------------
-------------------------------------------------------------------------------



INTRO:
W/Chorus
e-----------------------------------------------|
B-----------------------------------------------|
G-----------------------------------------------|
D---7x---7x-7x-7x---7x-7x-7x---7x-7x-7x-7x-7x---|
A---7x---7x-7x-7x---7x-7x-7x---7x-7x-7x-7x-7x---|
E---5x---5x-5x-5x---5x-5x-5x---5x-5x-5x-5x-5x---|

e--------------- Play 7 x ------------|-------|
B-------------------------------------|-------|
G---------------5-------0-------------|-------|
D-----7p5-----5-------4---4-------7---|---7---|
A-----------3-------2-----------5-----|---7---|
E---5-------------------------3-------|---5---|


1st VERSE:
e-------------------------------------------|
B---7b-----7br5-----------------12b---------|
G---7b-----7br5-----------------12b---------|
D-------------------------------------12b---|
A-------------------------------------------|
E-------------------------------------------|


PRE CHORUS:
e-------------------------------------------------|
B-------------------------------------------------|
G-------------------------------------------------|
D---13-------11-------9-------8-------7-------7---|
A---13-------11-------9-------8-------7-------7---|
E---11--------9-------7-------6-------5-------5---|


CHORUS:
e-----------------------------------|
B-----------------------------------|
G---9--9-------12--12-12-12-12-12---|   4x
D---9--9--9-9--12--12-12-12-12-12---|
A---7--7--9-9--10--10-10-10-10-10---|
E---------7-7-----------------------|


SOLO:
W/Wah wah 
e-------------------------------------------------|
B-------------------------------------------------|
G-------------------------------------------------|
D---12h14----10h12p10-12p10-12p10-12p10-----------|
A-----------------------------------------12p10---|
E-------------------------------------------------|


2nd VERSE:
e--------------------------------------------------|
B--------------------------------------------------|
G----------5/4----------------------5/4------------|
D---7--X---5/4--4-2----------7--X---5/4------------|
A---7--X---3/2--2-0----------7--X---3/2----0h2h3---|
E---5--X---------------------5--X--------3---------|

e--------------------------------------------------------|
B--------------------------------------------------------|
G----------5/4----------------------5/4-----2p0----0-----|
D---7--X---5/4--4-2----------7--x---5/4---------2----2---|
A---7--X---3/2--2-0----------7--x---3/2------------------|
E---5--X---------------------5--x------------------------|

e-------------------------------------|
B-------------------------------------|
G---------------5-------0-------------|   4x
D-----7p5-----5-------4---4-------7---|
A-----------3-------2-----------5-----|
E---5-------------------------3-------|


PRE CHORUS:
e-------------------------------------------------|
B-------------------------------------------------|
G-------------------------------------------------|
D---13-------11-------9-------8-------7-------7---|
A---13-------11-------9-------8-------7-------7---|
E---11--------9-------7-------6-------5-------5---|


CHORUS:
e--------------- Play 4x -----------|-------|
B-----------------------------------|-------|
G---9--9-------12--12-12-12-12-12---|-------|   
D---9--9--9-9--12--12-12-12-12-12---|---7---|
A---7--7--9-9--10--10-10-10-10-10---|---7---|
E---------7-7-----------------------|---5---|


SOLO:
e----------------------------------------|
B---------3------3------------3------3---|
G---------3------3------------3------3---|  4x
D---3h5------3h5--------3h6------3h6-----|
A---3--------3----------3--------3-------|
E----------------------------------------|

e----------------------------------------|
B---------3------5------------3------5---|
G---------3------5------------3------5---|  4x
D---3h5------3h5--------3h6------3h6-----|
A---3--------3----------3--------3-------|
E----------------------------------------|

W/delay
e-------------------------------------------------|
B-------------------------------------------------|
G---/12---12----12-12\-------/12---12----12-12\---|
D-------------------------------------------------|
A-------------------------------------------------|
E-------------------------------------------------|
                                                       2x
e-------------------------------------------------|
B-------------------------------------------------|
G-------------------------------------------------|
D---/13---13----13-13\-------/18---18----18-18\---|
A-------------------------------------------------|
E-------------------------------------------------|


CHORUS:
e-----------------------------------|
B-----------------------------------|
G---9--9-------12--12-12-12-12-12---|   4x
D---9--9--9-9--12--12-12-12-12-12---|
A---7--7--9-9--10--10-10-10-10-10---|
E---------7-7-----------------------|


OUTRO:
e-------------------------------------|
B-------------------------------------|
G---------------5-------0-------------|   3x
D-----7p5-----5-------4---4-------7---|
A-----------3-------2-----------5-----|
E---5-------------------------3-------|

e-----------------------|
B-----------------------|
G---------------5---4---|
D-----7p5-----5-----4---|
A-----------3-------2---|
E---5-------------------|


x   =   palm mute
b   =   bend
b   =   bend release
/   =   slide down
\   =   slide up
p   =   pull off
h   =   hammer on





Comments


Popular Laufer tabs & chords
Moja Voda Chords
Balerina Tabs
Dio Tebe Tabs
Hej Tata Tabs
Izmedju Neba I Mora Tabs
Jedini Sto Zna Tabs
Misolovka Tabs
Mozda Tabs
Vampir Tabs
Mala Truba Ukulele


Song lyrics



↑ Back to top | Tablatures and chords are parodies/interpretations of the original songs. You may use it for private study, scholarship, research or language learning purposes only
© 2014 AZChords.com Contact us | Privacy policy | DMCA | Add/correct tabs | Request tabs | Top 50 tabs