>
 >
Vampir

Vampir Guitar Tabs

Laufer - Vampir chords, tabs, tablatures, lyrics

Guitar lessons | Add/correct | Request | Top 50 tabs Artists:  A B C D E F G H I J K L M N O P Q R S T U V W X Y Z 0-9

Vampir Guitar Tabs – Laufer

CD, Sheet music, Poster

Do you like Vampir? Share with your friends now
Tabs
-------------------------------------------------------------------------------
-------------------------------------------------------------------------------



INTRO:
e----------------------------|
B----------------------------|
G----------------------------|
D---5x-5x-5x-5x-5x-5x-5x-5---|
A---5x-5x-5x-5x-5x-5x-5x-5---|
E---3x-3x-3x-3x-3x-3x-3x-3---|

e------------------------------------|
B------------------------------------|
G------------------------------------|  4x
D------------------------------------|
A---7--7-7/2---2/5/2----3-----5-----|
E---5--5-5/0----0/3/0----1-----3-----|


VERSE:
e--------------------------------|
B--------------------------------|
G--------------6--------4--------|  4x
D---6----------6--------4----4---|
A---6----------4--------2----4---|
E---4------------------------2---|
       Cijelu noc sam jahao...


PRE CHORUS:
e------------------------------|
B------------------------------|
G---2--------7-----5------4----|  2x
D---2--------7-----5------4----|
A---0--------5-----3------2----|
E------------------------------|
      Od ponoci do svitanja... 


CHORUS:
e------------------------------------|
B------------------------------------|
G------------------------------------|  4x
D------------------------------------|
A---7--7-7/2---2/5/2----3-----5-----|
E---5--5-5/0----0/3/0----1-----3-----|


VERSE 2:
Play verse riff 4x


PRE CHORUS:
Play pre chorus riff 2x


CHORUS:
Play chorus riff 4x


BRIDGE:
e---------0---------------|
B------0-----------0--3---|
G---2-----------2---------|  2x
D-------------------------|
A-------------------------|
E-------------------------|

e-------------------------|
B-------------------------|
G-------7----------7------|  2x
D---9---7------9---7--7---|
A---9---5------9---5--7---|
E---7----------7------5---|


SOLO:
e-----------------------------------------------------|
B---15-15-15-15-15-15-15-15-17-17-17-17-17-17-17-17---|
G-----------------------------------------------------|  2x
D-----------------------------------------------------|
A-----------------------------------------------------|
E-----------------------------------------------------|

e----------------------------------------------|
B--------------------------------15-15-15-17---|
G---14-16--14-16--14-16--14-16-----------------|
D----------------------------------------------|
A----------------------------------------------|
E----------------------------------------------|

e-----------------------------------------------------|
B---15-15-15-15-15-15-15-15-17-17-17-17-17-17-17-17---|
G-----------------------------------------------------|  2x
D-----------------------------------------------------|
A-----------------------------------------------------|
E-----------------------------------------------------|

e-------------------------------------19-19---|
B---20-17--20-17-20-17--20-17-----17---------|
G---------------------------------------------|
D---------------------------------------------|
A---------------------------------------------|
E---------------------------------------------|


CHORUS:
Play chorus riff 4x


OUTRO:
e------------------------------------------------|
B------------------------------------------------|
G------------------------------------------------|  7x
D------------------------------------------------|
A------7--6--5-----5--6----------7--6--5-----5---|
E---0-----------7-------------0-----------7------|


/ = slide





Comments


Popular Laufer tabs & chords
Moja Voda Chords
Moja Voda 1 Chords
Balerina Tabs
Govorim U Snu Tabs
Hej Tata Tabs
Izmedju Neba I Mora Tabs
Ljubav Kao Heroin Tabs
Matematicka Tabs
Pustinje Tabs
Svijet Za Nas Tabs


Song lyrics



↑ Back to top | Tablatures and chords are parodies/interpretations of the original songs. You may use it for private study, scholarship, research or language learning purposes only
© 2014 AZChords.com Contact us | Privacy policy | DMCA | Add/correct tabs | Request tabs | Top 50 tabs