>
 >
Mozda

Mozda Guitar Tabs

Laufer - Mozda chords, tabs, tablatures, lyrics

Guitar lessons | Add/correct | Request | Top 50 tabs Artists:  A B C D E F G H I J K L M N O P Q R S T U V W X Y Z 0-9

Mozda Guitar Tabs – Laufer

CD, Sheet music, Poster

Do you like Mozda? Share with your friends now
Tabs
-------------------------------------------------------------------------------
-------------------------------------------------------------------------------



INTRO:
W/Tremolo
e------------------|
B----- feedback ---|
G------------------|
D---0--------------|
A---0--------------|
D---0--------------|

e-----------------------------|
B-----------------------------|
G-----------------------------|
D---1----6----10----1--3--5---|
A---1----6----10----1--3--5---|
D---1----6----10----1--3--5---|

e------------------------|
B------------------------|
G------------------------|  3x
D---6----10----1--3--5---|
A---6----10----1--3--5---|
D---6----10----1--3--5---|

1st VERSE:
W/Flanger
e--------------------------------------------------------|
B--------------------------------------------------------|
G--------------------------------------------------------|  4x
D---6/10-------1-----------/5-----------6/10----1---/6---|
A---6/10-------1-----------/5-----------6/10----1---/6---|
D---6/10-------1-----------/5-----------6/10----1---/6---|
      Mozda  glava mi je spuzva sto te upija...

e-------------------------------|
B-------------------------------|
G---10p9h10h12-10---------------|  2x
D-------------------10p9--------|
A------------------------8h10---|
D-------------------------------|

2nd VERSE:
W/Flanger
e--------------------------------------------------------|
B--------------------------------------------------------|
G--------------------------------------------------------|   4x
D---6/10-------1-----------/5-----------6/10----1---/6---|
A---6/10-------1-----------/5-----------6/10----1---/6---|
D---6/10-------1-----------/5-----------6/10----1---/6---|
     Odgovor  cini  mi  se vec predugo  putujem...

e--------------------------|
B--------------------------|
G---8-7-8-12-8---8-7-------|  2x
D---8-7-8-12-8---8-7-8-5---|
A---6-5-6-10-6---6-5-8-5---|
D--------------------8-5---|

CHORUS:
e--------------------------------------------------------------|
B--------------------------------------------------------------|
G-----------------------------------------5-5-5--5-5-5-5-5-5---|  2x
D---1-1--xx-1-1--1-----5-5--xx-5-5--5-----5-5-5--5-5-5-5-5-5---|
A---1-1--xx-1-1--1-----5-5--xx-5-5--5-----3-3-3--3-3-3-3-3-3---|
D---1-1--xx-1-1--1-----5-5--xx-5-5--5--------------------------|
    Moje                kosti gore          ponoc je

e-------------------------------|
B-------------------------------|
G---10p9h10h12-10---------------|
D-------------------10p9--------|
A------------------------8h10---|
D-------------------------------|

3rd VERSE:
W/Flanger
e----------------------------------------------|
B---------------------------3------------3-----|
G---5--------8----------------3------------3---|  4x
D-----5--------8-------------------------------|
A----------------6-----------------------------|
D-------------------------1------------5-------|
    Mozda                  znak   koji   cekam ... 

e----------------------------|
B----------------------------|
G---8-7-8-12-8---7-8-7-------|  2x
D---8-7-8-12-8---7-8-7-8-5---|
A---6-5-6-10-6---5-6-5-8-5---|
D----------------------8-5---|

CHORUS:
e--------------------------------------------------------------|
B--------------------------------------------------------------|
G-----------------------------------------5-5-5--5-5-5-5-5-5---|  3x
D---1-1--xx-1-1--1-----5-5--xx-5-5--5-----5-5-5--5-5-5-5-5-5---|
A---1-1--xx-1-1--1-----5-5--xx-5-5--5-----3-3-3--3-3-3-3-3-3---|
D---1-1--xx-1-1--1-----5-5--xx-5-5--5--------------------------|
    Moje                kosti gore          ponoc je

SOLO:
e---------------|
B---------------|
G---10---10p9---| 4x
D---------------|
A---------------|
D---------------|

W/Flanger             W/Delay
e--------------------------8---------------------------|
B------------------------------------------------------|
G---5-------8---7h8---10--------5-------8--------10----|
D---5-------8---------10--------5-------8--------10----|
A---3-------6----------8--------3-------6---------8----|
D------------------------------------------------------|

e-----------------|
B-----------------|
G-----------------|  4x
D-----------------|  
A-----------------|  Durring this part, the rhythm guitar plays 
D---xx-10\--10\---|  the 2nd intro riff W/Flanger


e--------------------------|
B--------------------------|
G---8-7-8-12-8---8-7-------|  
D---8-7-8-12-8---8-7-8-5---|
A---6-5-6-10-6---6-5-8-5---|
D--------------------8-5---|

CHORUS:
e--------------------------------------------------------------|
B--------------------------------------------------------------|
G-----------------------------------------5-5-5--5-5-5-5-5-5---|  2x
D---1-1--xx-1-1--1-----5-5--xx-5-5--5-----5-5-5--5-5-5-5-5-5---|
A---1-1--xx-1-1--1-----5-5--xx-5-5--5-----3-3-3--3-3-3-3-3-3---|
D---1-1--xx-1-1--1-----5-5--xx-5-5--5--------------------------|
    Moje                kosti gore          ponoc je

e------------------------------|
B------------------------------|
G---10p9h10h12-10--------------|  4x
D------------------10p9--------|
A-----------------------8h10---|
D------------------------------|

                           W/Flanger
e----- Play 4x ------|-------------|
B--------------------|--------x----|
G--------------------|-------10v---|
D---10---9-----------|--------0----|
A------------10br8---|-------------|
D--------------------|-------------|


x   =   palm mute   
/   =   slide down
\   =   slide up
p   =   pull off
h   =   hammer on





Comments


Popular Laufer tabs & chords
Mala Truba Chords
Moja Voda Chords
Moja Voda 1 Chords
Govorim U Snu Tabs
Izmedju Neba I Mora Tabs
Jedini Sto Zna Tabs
Pustinje Tabs
Svijet Za Nas Tabs
Vidddeno Tabs
Moja Voda Ukulele


Song lyrics



↑ Back to top | Tablatures and chords are parodies/interpretations of the original songs. You may use it for private study, scholarship, research or language learning purposes only
© 2014 AZChords.com Contact us | Privacy policy | DMCA | Add/correct tabs | Request tabs | Top 50 tabs