» » »

Laufer, Misolovka Tabs (ver.1)

Artists:  A B C D E F G H I J K L M N O P Q R S T U V W X Y Z # 

Misolovka Tabs (ver.1)

Laufer Tabs
 Rating:
4/5 (4 votes)
Misolovka lessons Tabs too difficult? Try these video lessons and learn fast
1
                -------------------------------------------------------------------------------
-------------------------------------------------------------------------------



INTRO:
e-----------------------------------------------|
B-----------------------------------------------|
G----------------2p0-----2h4-0h2p0--------------|    play 4x
D----------------------------------0h2p0--2-----|
A----5h7p5-----------2--------------------2-----|
E----------7p5p3--------------------------0-----|


VERSE 1:
e--------------------------|
B--------------------------|
G-----------4----7---------|     play 4x
D---2---2-2-4----7---------|
A-—-2---2-2-2----5---------|
E-—-0---0-0----------------|

e---------------------------------------------------------|
B---------------------------------------------------------|
G----------4---7------------------------4---7-------------|
D--2---2-2-4---7----------------2---2-2-4---7-------------|
A—-2---2-2-2---5---/7p5---------2---2-2-2---5----/10p9----|
E—-0---0-0----------------------0---0-0-------------------|

e---------------------------------------------------------|
B---------------------------------------------------------|
G----------4---7-------7----------------4---7-------------|
D--2---2-2-4---7----/9----------2---2-2-4---7----/9-7-----|
A—-2---2-2-2---5----------------2---2-2-2---5-------------|
E—-0---0-0----------------------0---0-0-------------------|


PRE CHORUS:
e-----------------------------------------------|
B-----------------------------------------------|
G----------------2p0-----2h4-0h2p0--------------|    play 2x
D----------------------------------0h2p0--2-----|
A----5h7p5-----------2--------------------2-----|
E----------7p5p3--------------------------0-----|


CHORUS:
e-------------------------------|
B-------------------------------|
G---2-----5---------------------|   play 4x
D---2-----5---5--2-2-2-2-2-2----|
A---0-----3---5--2-2-2-2-2-2----|
E-------------3--0-0-0-0-0-0----|


VERSE 2:
e--------------------------|
B--------------------------|
G-----------4----7---------|     play 4x
D---2---2-2-4----7---------|
A-—-2---2-2-2----5---------|
E-—-0---0-0----------------|

e---------------------------------------------------------|
B---------------------------------------------------------|
G----------4---7------------------------4---7-------7-----|
D--2---2-2-4---7----/10p9-------2---2-2-4---7----/9-------|
A—-2---2-2-2---5----------------2---2-2-2---5-------------|
E—-0---0-0----------------------0---0-0-------------------|

e--------------------------|
B--------------------------|
G-----------4----7---------|     play 2x
D---2---2-2-4----7---------|
A-—-2---2-2-2----5---------|
E-—-0---0-0----------------|


PRE CHORUS:
e-----------------------------------------------|
B-----------------------------------------------|
G----------------2p0-----2h4-0h2p0--------------|    play 2x
D----------------------------------0h2p0--2-----|
A----5h7p5-----------2--------------------2-----|
E----------7p5p3--------------------------0-----|


CHORUS:
e--------------------------------|
B--------------------------------|
G----2-----5---------------------|    play 4x
D----2-----5---5--2-2-2-2-2-2----|
A----0-----3---5--2-2-2-2-2-2----|
E--------------3--0-0-0-0-0-0----|


BRIDGE:
e--------------------------------------------|
B--------------------------------------------|
G--------------------------------------------|    play 6x
D--------------------------------------------|
A------3p2-0h2-------------3p2-0h2-----------|
E----0---------3--0------0---------3--0-0----|


SOLO:
e-----------------------------------------12----|
B-----------------------------------------------|
G---14b------14b------14br12-----12h14p12-------|
D-----------------------------------------------|
A-----------------------------------------------|
E-----------------------------------------------|


CHORUS:
e--------------------------------|
B--------------------------------|
G----2-----5---------------------|    play 4x
D----2-----5---5--2-2-2-2-2-2----|
A----0-----3---5--2-2-2-2-2-2----|
E--------------3--0-0-0-0-0-0----|


h   =  hammer-on
p   =  pull-off
b   =  bend
br  =  bend release
/   =  slide
            
Submit corrections

comments powered by Disqus
↑ Back to top | Laufer Tabs for Misolovka. Lyrics for acoustic guitar and electric guitar. 1 Tablatures and chords are parodies/interpretations of the original songs. You may use it for private study, scholarship, research or language learning purposes only