>
 >
Matematicka

Matematicka Guitar Tabs

Laufer - Matematicka chords, tabs, tablatures, lyrics

Guitar lessons | Add/correct | Request | Top 50 tabs Artists:  A B C D E F G H I J K L M N O P Q R S T U V W X Y Z 0-9

Matematicka Guitar Tabs – Laufer

CD, Sheet music, Poster

Do you like Matematicka? Share with your friends now
Tabs
-------------------------------------------------------------------------------
-------------------------------------------------------------------------------



INTRO:
e---------------------------------------------------|
B---------------------------------------------------|
G----------------------0------------------------0---|
D-----2p0-2p0-2p0--------------2p0-2p0-2p0----------|
A------------------0h2----------------------0h2-----|
E---0------------------------0----------------------|

e---------------------------------------------------|
B---------------------------------------------------|
G----------------------3------------------------5---|
D-----5p3-5p3-5p3--5p3---------7p5-7p5-7p5--7p5-----|
A---------------------------------------------------|
E---3------------------------5----------------------|


SOLO: 
To get the tone of the solo use a flanger and chprus effect (at the same time).
The flanger should be set to a moderate flange. 
While the chorus should be set to a heavy (watery) chorus. 

e---------------------------------------------------------12---|
B---15b-15b-15b---15br12---------------------------------------| 
G------------------------14-------14b-14b-14b---14br12---------| 
D------------------------------------------------------14------|
A--------------------------------------------------------------|
E--------------------------------------------------------------|

e---------------------------------------|-------- Play 4 x -------|
B---------------------------------------|-------------------------|
G---------------------------------------|-------------------------|
D---------------------------5-----------|---8\7-8\7-8\7---7-7-7---|
A------------3----3---3h5h7-----5p3-----|---6\5-6\5-6\5---7-7-7---|
E---0--3h4h5---5----5---------------5---|-----------------5-5-5---|


1st VERSE:
            A5
Negdje pod haljinama noci, Izmedju rasirenih nogu
  A5
Uspavanog grada, On bas prolazi kroz tebe
   A5           A5            A5           A5
I prati te dok hodas, U usta gleda ti dok jedes
    A5        A5        A5       A5
I dok spavas sama, On lezi pored tebe

e-------------------------------------------|
B-------------------------------------------|
G---------------------------------------8---|
D---------------------------5-----------8---|
A------------3----3---3h5h7-----5p3-----6---|
E---0--3h4h5---5----5---------------5-------|


2nd VERSE:
D#5                                              D#5 D5 
    I ljulja se na rubu, Mozda ceka svoje vrijeme,
A mozda bas nocas, Spreman je da krene


PRE-CHORUS:
W/flanger-chorus

D5       B5
Mrzi ili voli
 D5        B5
Rijeci su vagi.


CHORUS:
e---------------------------------------------------|
B---------------------------------------------------|
G----------------------0------------------------0---|
D-----2p0-2p0-2p0--------------2p0-2p0-2p0----------|
A------------------0h2----------------------0h2-----|
E---0------------------------0----------------------|
                                                          2x
e---------------------------------------------------|
B---------------------------------------------------|
G----------------------3------------------------5---|
D-----5p3-5p3-5p3--5p3---------7p5-7p5-7p5--7p5-----|
A---------------------------------------------------|
E---3------------------------5----------------------|


3rd VERSE:
  A5 
Ljulja se na rubu, Ceka svoje vrijeme
   G5
A mozda bas nocas, Spreman je da krene


CHORUS
The chorus is played twice. 
The first time it's normal but the second time it goes like this:

e---------------------------------------------------|
B---------------------------------------------------|
G----------------------0------------------------0---|
D-----2p0-2p0-2p0--------------2p0-2p0-2p0----------|
A------------------0h2----------------------0h2-----|
E---0------------------------0----------------------|
                                                          
e-----------------------------------------------------------------|
B-----------------------------------------------------------------|
G----------------------3------------------------------------------|
D-----5p3-5p3-5p3--5p3---------7p5-7p5-7p5--5--------------3--5---|
A---------------------------------------------8p5p4-1h3p1--3--5---|
E---3------------------------5-----------------------------1--3---|


SOLO:
W/flanger-chorus
Take a bottle and slide it up and down the strings.


PRE CHORUS:
e-------------------|
B-------------------|
G-------7-------4---|
D-----7-------4-----|
A---5-------2-------|
E-------------------|
    Mrzi ili voli...


CHORUS:
E5                    E%
On je, On je, On je, Kao tempirana bomba
  G5                 A5                      Play 2x
Zaljubljeni vojnik, navijen je i ceka


OUTRO:
e----------------------------------------|
B----------------------------------------|
G------------------------------------2---|
D---------------------------5--------2---|
A------------3----3---3h5h7-----5p3--0---|
E---0--3h4h5---5----5--------------------|

End with: A5




p   =   pull off
h   =   hammer on
b   =   bend
br  =   bend release





Comments


Popular Laufer tabs & chords
Mala Truba Chords
Moja Voda 1 Chords
Balerina Tabs
Dio Tebe Tabs
Izmedju Neba I Mora Tabs
Ljubav Kao Heroin Tabs
Mozda Tabs
Pustinje Tabs
Svijet Za Nas Tabs
Moja Voda Ukulele


Song lyrics



↑ Back to top | Tablatures and chords are parodies/interpretations of the original songs. You may use it for private study, scholarship, research or language learning purposes only
© 2014 AZChords.com Contact us | Privacy policy | DMCA | Add/correct tabs | Request tabs | Top 50 tabs