» » »

Ljubav Kao Heroin Tabs (ver.1)

Artists:  A B C D E F G H I J K L M N O P Q R S T U V W X Y Z # 

Ljubav Kao Heroin Tabs (ver.1)

Laufer
Rating:
0/5 (0 votes)

Hard to play? Try these video lessons and learn fast.
                -------------------------------------------------------------------------------
-------------------------------------------------------------------------------



Riff A
e---------------------------------------------------------------------|
B---------------------------------------------------------------------|
G---------------------------------------------------------------------|
D---2-2---5---7-7-7-7---8-9-------------------------------------------|
A---2-2---5---7-7-7-7---8-9-------------------------------------------|
E---0-0---3---5-5-5-5---6-7-------------------------------------------|

Riff B:
e---------------------------------------------------------------------|
B---------------------------------------------------------------------|
G---------------------------------------------------------------------|
D---------------------------------------------------------------------|
A-------7-5------7-7-5-------------------7-5------7-7-----------------|
E---0-------7-----------7-6-5--------0-------7---------5-6-7----------|

Riff C:
e---------------------------------------------------------------------|
B---------------------------------------------------------------------|
G-----------------------4---------------------------------------------|
D---4---4---5-5-4-4-----4---------------------------------------------|
A---4---4---5-5-4-4-----2---------------------------------------------|
E---2---2---3-3-2-2---------------------------------------------------|

Solo:
e--------------------------------12-----------------------------------|
B---12~ ~ ~ ~ ~ ~ ~ ~ ~ ~ ~ ~ ~ ------10-10---------------------------|
G-------------------------------------------12-9----------------------|
D---------------------------------------------------------------------|
A---------------------------------------------------------------------|
E---------------------------------------------------------------------|

e---------------------------------------------------------------------|
B------------------------------10-10----------------------------------|
G---12~ ~ ~ ~ ~ ~ ~ ~ ~ ~ ~ ~ -------12-------------------------------|
D---------------------------------------------------------------------|
A---------------------------------------------------------------------|
E---------------------------------------------------------------------|

e---------------------------------------------------------------------|
B---10~ ~ ~ ~ ~ ~ ~ ~ ~ ~ ~ ~ ~ --------------------------------------|
G---------------------------------------------------------------------|
D---------------------------------------------------------------------|
A---------------------------------------------------------------------|
E---------------------------------------------------------------------|

~ - vibratio
            
Hard to play? Try these video lessons and learn fast. | Correct




comments powered by Disqus
↑ Back to top | Tablatures and chords are parodies/interpretations of the original songs. You may use it for private study, scholarship, research or language learning purposes only