>
 >
Jedini Sto Zna

Jedini Sto Zna Guitar Tabs

Laufer - Jedini Sto Zna chords, tabs, tablatures, lyrics

Guitar lessons | Add/correct | Request | Top 50 tabs Artists:  A B C D E F G H I J K L M N O P Q R S T U V W X Y Z 0-9

Jedini Sto Zna Guitar Tabs – Laufer

CD, Sheet music, Poster

Do you like Jedini Sto Zna? Share with your friends now
Tabs
-------------------------------------------------------------------------------
-------------------------------------------------------------------------------



INTRO:
e---------------------------|-----------------------0-----------------|
B------------3-3------------|-----------3-3-----------3---------------|
G---4---4----0-0--- play ---|---4---4---0-0-------------0----- play --|
D---4---4----0-0---- 4x ----|---4---4---0-0-------0-------0---- 4x ---|
A---2---2----2-2------------|---2---2---2-2-----2---------------------|
E------------3-3------------|-----------3-3---3-----------------------|


VERSE 1:
e---------------------------------------------------------------------|
B---------------------------------------------------------------------|
G---4-----------------0----------------------------------0------------|
D---4------------4--------------------4------------4------------------|
A---2-------2--------------------2------------2-----------------------|
E---------------------------------------------------------------------|

e---------------------------------------------------------------------|
B---------------------------------------------------------------------|
G--------------------------0----------------------------------0-------|
D--------4------------4--------------------4-------------4------------|
A---2------------2--------------------2-------------2-----------------|
E---------------------------------------------------------------------|

e-----------------------------------|
B-------------3-----------------2---|
G--------0-----------------0--------|
D---2-----------------2-------------|
A-----------------------------------|
E-----------------------------------|

e-----------------0-------------------------------------|
B-------------3-----3-------------------2---------------|
G--------0------------0------------0--------------------|
D---2-------------------------2-------------------------|
A-------------------------------------------------------|
E-------------------------------------------------------|


CHORUS:
e------------------------0---------|
B-----------3-3------------3-------|
G---4---4---0-0--------------0-----|   play 4x
D---4---4---0-0--------0-------0---|
A---2---2---2-2------2-------------|
E-----------3-3----3---------------|


VERSE 2:
e--------------3----2----0---|---------------/5----3----2----|
B---5---3--------------------|---5----3----------------------|
G----------------------------|-------------------------------|
D----------------------------|-------------------------------|
A---------- play 1x ---------|---------- play 4x ------------|
E----------------------------|-------------------------------|

e------------3-3------/5----3----2-----|
B------------0-0-----------------------|
G---4---4----0-0-----------------------|
D---4---4----0-0-----------------------|
A---2---2----2-2-----------------------|
E------------3-3-----------------------|

e-----------------------------------|
B-------------3-----------------2---|
G--------0-----------------0--------|   play 2x
D---2-----------------2-------------|
A-----------------------------------|
E-----------------------------------|


CHORUS:
e------------------------0---------|
B-----------3-3------------3-------|
G---4---4---0-0--------------0-----|   play 4x
D---4---4---0-0--------0-------0---|
A---2---2---2-2------2-------------|
E-----------3-3----3---------------|


RHYTHM FOR BASS SOLO:
e----0---------0---------0---------0---------0----|
B----0---------0---------0---------0---------0----|
G----2---------2---------2---------2---------2----|
D----2---------2---------2---------2---------2----|
A----0---------0---------0---------0---------0----|
E-------------------------------------------------|


BRIDGE:
e-------------------------------------------|
B-------------------------------------------|
G---4-4-4-4-------------2-2-2-2---5-5-5-5---|   play 2x
D---4-4-4-4---4-4-4-4---2-2-2-2---5-5-5-5---|
A---2-2-2-2---4-4-4-4---0-0-0-0---3-3-3-3---|
E-------------2-2-2-2-----------------------|


GUITAR SOLO:
e-----------------------------------------------------------------|
B---12b-12b-12b-12b-12b-12b-12b-12b-12b-12b-12b-12b-12b-12b-12b---|
G-----------------------------------------------------------------|
D-----------------------------------------------------------------|
A-----------------------------------------------------------------|
E-----------------------------------------------------------------|

e---------------------------------------------------------------|
B---14b-14b-14b-14b-14b-14b-14b--17b-17b-17b-17b--20b-20b-20b---|
G---------------------------------------------------------------|
D---------------------------------------------------------------|
A---------------------------------------------------------------|
E---------------------------------------------------------------|


CHORUS:
e-------------------------0----------|
B------------3-3------------3--------|
G----4---4---0-0--------------0------|   play 4x
D----4---4---0-0--------0-------0----|
A----2---2---2-2------2--------------|
E------------3-3----3----------------|


OUTRO:
e--------------------|
B-------------3-3----|
G----4---4----0-0----|   play 4x
D----4---4----0-0----|
A----2---2----2-2----|
E-------------3-3----|



/   =  slide
b   =  bend 





Comments


Popular Laufer tabs & chords
Moja Voda Chords
Moja Voda 1 Chords
Blizanac Tabs
Dio Tebe Tabs
Izmedju Neba I Mora Tabs
Ljubav Kao Heroin Tabs
Misolovka Tabs
Pustinje Tabs
Mala Truba Ukulele
Moja Voda Ukulele


Song lyrics



↑ Back to top | Tablatures and chords are parodies/interpretations of the original songs. You may use it for private study, scholarship, research or language learning purposes only
© 2014 AZChords.com Contact us | Privacy policy | DMCA | Add/correct tabs | Request tabs | Top 50 tabs