» » »

Laufer, Blizanac Tabs (ver.1)

Artists:  A B C D E F G H I J K L M N O P Q R S T U V W X Y Z # 

Blizanac Tabs (ver.1)

Laufer Tabs
Rating:
0/5 (0 votes)
Blizanac lessons Tabs too difficult? Try these video lessons and learn fast
                -------------------------------------------------------------------------------
-------------------------------------------------------------------------------



INTRO:
e---------------------------------------------------------|
B---------------------------------------------------------|
G----------------6-6---4-4-------4---------6-6-6---4-4----|
D----2-2---6-6---6-6---4-4---6---4-----2---6-6-6---4-4----|
A----2-2---6-6---4-4---2-2---6---2-----2---4-4-4---2-2----|
E----0-0---4-4---------------4---------0------------------|

e----------------------------|
B----------------------------|
G---------------6-6---4-4----|
D---2-2---6-6---6-6---4-4----|
A---2-2---6-6---4-4---2-2----|
E---0-0---4-4----------------|


VERSE 1:
e-------------------------------------|
B-------------------------------------|
G-------------------------------------|  8x
D---6-6-6-6-6-6-6----4-4-4-4-4-4-4----|
A---6-6-6-6-6-6-6----4-4-4-4-4-4-4----|
E---4-4-4-4-4-4-4----2-2-2-2-2-2-2----|

e-------------------------------------|
B-------------------------------------|
G---6----------------6----------------|
D---6----------------6----------------|
A---4----------------4----------------|
E-------------------------------------|

e-------------------------------------|
B-------------------------------------|
G-------------------------------------|  2x
D---6-6-6-6-6-6-6----4-4-4-4-4-4-4----|
A---6-6-6-6-6-6-6----4-4-4-4-4-4-4----|
E---4-4-4-4-4-4-4----2-2-2-2-2-2-2----|


CHORUS:
e-------------------------|
B-------------------------|
G-------------6-6--4-4----|   4x
D---2----6----6-6--4-4----|
A---2----6----4-4--2-2----|
E---0----4----------------|


VERSE 2:
e-------------------------------------|
B-------------------------------------|
G-------------------------------------|   4x
D---6-6-6-6-6-6-6----4-4-4-4-4-4-4----|
A---6-6-6-6-6-6-6----4-4-4-4-4-4-4----|
E---4-4-4-4-4-4-4----2-2-2-2-2-2-2----|

e-------------------------------------|
B-------------------------------------|
G---6----------------6----------------|
D---6----------------6----------------|
A---4----------------4----------------|
E-------------------------------------|

e-------------------------------------|
B-------------------------------------|
G-------------------------------------|   2x
D---6-6-6-6-6-6-6----4-4-4-4-4-4-4----|
A---6-6-6-6-6-6-6----4-4-4-4-4-4-4----|
E---4-4-4-4-4-4-4----2-2-2-2-2-2-2----|


CHORUS:
e-------------------------|
B-------------------------|
G-------------6-6--4-4----|   7x
D---2----6----6-6--4-4----|
A---2----6----4-4--2-2----|
E---0----4----------------|

e----------------------------|
B----------------------------|
G---------------6-6---4-4----|
D---2-2---6-6---6-6---4-4----|
A---2-2---6-6---4-4---2-2----|
E---0-0---4-4----------------|


VERSE 3:
e-------------------------------------------|
B-------------------------------------------|
G------------------------6br4--6-4-----4----|
D---2----------6-------------------6-4------|
A---2----------6----------------------------|
E---0----------4----------------------------|

e--------------------------------------------------|
B--------------------------------------------------|
G------------------------/8-8-8—-11p8--------------|
D---2----------6----------------------11p9---------|
A---2----------6---------------------------9h11----|
E---0----------4-----------------------------------|

e---------------------------------------|
B---------------------------------------|
G------------------------11b-11b-11b----|
D---2----------6------------------------|
A---2----------6------------------------|
E---0----------4------------------------|

e-------------------------|
B-------------------------|
G--------------14b-15b----|
D---2---------------------|
A---2---------------------|
E---0---------------------|


CHORUS:
e-------------------------|
B-------------------------|
G-------------6-6--4-4----|   7x
D---2----6----6-6--4-4----|
A---2----6----4-4--2-2----|
E---0----4----------------|

e----------------------------|
B----------------------------|
G---------------6-6---4-4----|
D---2-2---6-6---6-6---4-4----|
A---2-2---6-6---4-4---2-2----|
E---0-0---4-4----------------|



br  =  bend release
h   =  hammer-on
p   =  pull-off
            
Submit corrections

comments powered by Disqus
↑ Back to top | Laufer Tabs for Blizanac. Lyrics for acoustic guitar and electric guitar. Tablatures and chords are parodies/interpretations of the original songs. You may use it for private study, scholarship, research or language learning purposes only