» » »

Late Of The Pier, Whitesnake Tabs (ver.1)

Artists:  A B C D E F G H I J K L M N O P Q R S T U V W X Y Z # 

Whitesnake Tabs (ver.1)

Late Of The Pier Tabs
Rating:
5/5 (2 votes)
Whitesnake lessons Tabs too difficult? Try these video lessons and learn fast
                -------------------------------------------------------------------------------
-------------------------------------------------------------------------------

Tuning: Standard

Intro:
e|---------------------------------------------------------------------------|
B|---------------------------------------------------------------------------|
G|---------------------------------------------------------------------------|
D|-0-2-5-2-0-7-0-2-5-2-0-7-0-2-5-2-------------------------------------------|
A|---------------------------------------------------------------------------|
E|---------------------------------------------------------------------------|

X 4



Verse:

e|---------------------------------------------------------------------------|
B|---------------------------------------------------------------------------|
G|--------55555555-----------------------------------------------------------|
D|22222222555555556666666677777777-------------------------------------------|
A|22222222333333336666666677777777-------------------------------------------|
E|00000000--------4444444455555555-------------------------------------------|

X 4

Then a repeat of the intro

Then the piano comes in and after 16 hits of the chord the guitar comes in with:

e|---------------------------------------------------------------------------|
B|---------------------------------------------------------------------------|
G|---------------------------------------------------------------------------|
D|-2  /  9----2  /  9----5  /  9----5-------9999--9--------------------------|
A|------------------------------------------9999--9--------------------------|
E|------------------------------------------7777--7--------------------------|

Followed straight on by:

e|---------------------------------------------------------------------------|
B|---------------------------------------------------------------------------|
G|----------------4-444-444-444-44----------------4-444-444-444-44-----------|
D|2-222-222-222-224-444-444-444-442-222-222-222-224-444-444-444-44-----------|
A|2-222-222-222-222-222-222-222-222-222-222-222-222-222-222-222-22-----------|
E|0-000-000-000-00----------------0-000-000-000-00---------------------------|
 xxxxxxxxxxxxxxxxxxxxxxxxxxxxxxxxxxxxxxxxxxxxxxxxxxxxxxxxxxxxxxxx(muted)

e|---------------------------------------------------------------------------|
B|---------------------------------------------------------------------------|
G|----------------4-444-444-444-44----------------4-444-444-444-44-----------|
D|5-555-555-555-554-444-444-444-445-555-555-555-554-444-444-444-44-----------|
A|5-555-555-555-552-222-222-222-225-555-555-555-552-222-222-222-22-----------|
E|3-333-333-333-33----------------3-333-333-333-33---------------------------|
 xxxxxxxxxxxxxxxxxxxxxxxxxxxxxxxxxxxxxxxxxxxxxxxxxxxxxxxxxxxxxxxx(muted(

The last break before the last verse starts:

e|---------------------------------------------------------------------------|
B|---------------------------------------------------------------------------|
G|----------------6-66666655555555--------44-55----44------------------------| X 3
D|7---10--9---5---6-66666655555555--------44-55-66-44-4-3--------------------|
A|7---10--9---5---4-44444433333333--------22-33-66-22-4-3--------------------|
E|5---8---7---3---------------------------------44----2-1--------------------|





| /  slide up
| \  slide down
| h  hammer-on
| p  pull-off
| ~  vibrato
| +  harmonic
| x  Mute note
===============================================================================
            
Submit corrections

comments powered by Disqus
↑ Back to top | Late Of The Pier Tabs for Whitesnake. Lyrics for acoustic guitar and electric guitar. Tablatures and chords are parodies/interpretations of the original songs. You may use it for private study, scholarship, research or language learning purposes only