» » »

Late Of The Pier, The Bears Are Coming Tabs (ver.2)

Artists:  A B C D E F G H I J K L M N O P Q R S T U V W X Y Z # 

The Bears Are Coming Tabs (ver.2)

Late Of The Pier Tabs
 Rating:
4/5 (4 votes)
The Bears Are Coming lessons Tabs too difficult? Try these video lessons and learn fast
                -------------------------------------------------------------------------------
                             The Bears Are Coming - Late Of The Pier
-------------------------------------------------------------------------------

Tuning: Standard EADGBE

This song hasn't got guitar in but i worked out a fun way to play the synth part pretty 
whilst bored so i thought i would share it with you


Main Verse

e|---------------------------------------------------------------------------|
B|---------------------------------------------------------------------------|
G|-----5--2--2--4-5-0----4-0---0-2-4------------Repeat This------------------|
D|---------2-----------------2-----------------------------------------------|
A|---3-----------------------------------------------------------------------|
E|---------------------0-----------------------------------------------------|

e|---------------------------------------------------------------------------|
B|---------------------------------------------------------------------------|
G|--------5--------5--------4--------4---------------------------------------|
D|---------------------------------------------------------------------------|
A|----3-3---3--0-0---0-------------------------------------------------------|
E|----------------------0-0---0--0-0---0-------------------------------------|

e|---------------------------------------------------------------------------|
B|---------------------------------------------------------------------------|
G|-----5--2--2--4-5-0----4-0---0-2-4-----------------------------------------|
D|---------2-----------------2-----------------------------------------------|
A|---3-----------------------------------------------------------------------|
E|---------------------0-----------------------------------------------------|


Chorus (Crazy screechy synth part)
e|---------------------------------------------------------------------------|
B|----------0-3/8------------------------------------------------------------|
G|------0-2-------4-4-4-4/7-4----4-4-4-0-0-----------------------------------|
D|----2----------------------------------------------------------------------|
A|---------------------------------------------------------------------------|
E|-Its quite hard hitting the slide accurately but it will come with practise-|


Solo Bit
e|-------------------------------------------------------------------------------------|
B|--------8--8-10-8-8-10-10/12~-8~------------8--8-10-8-8-10-12(bend up+tremolo this---|
G|--9-9-9-------------------------9~-7~--9-9-9-----------------------------------------|
D|-------------------------------------------------------------------------------------|
A|-------------------------------------------------------------------------------------|
E|-------------------------------------------------------------------------------------|

e|----12-10-8h10-8-------8------------------------------------+12+-(pinch harmonic)---|
B|-----------------10-10--10b12-10-10-8---------8--8-10-8-8-10------------------------|
G|-----------------------------------------9-9-9--------------------------------------|
D|------------------------------------------------------------------------------------|
A|------------------------------------------------------------------------------------|
E|------------------------------------------------------------------------------------|


Through most of the song the Bass is
G|---------------------------------------------------------------------------|
D|-------------------------2-2-2---------------------------------------------|
A|---3----3-0-----0--------------2-2-----------------------------------------|
E|-------------------0-------------------------------------------------------|
There is a good bass tab up anyway so I hope thats okay for you.
Its not perfect but its an adaptation so i hope you like it.

| /  slide up
| \  slide down
| h  hammer-on
| p  pull-off
| ~  vibrato
| +  harmonic
| x  Mute note
===============================================================================
            
Submit corrections

comments powered by Disqus
↑ Back to top | Late Of The Pier Tabs for The Bears Are Coming. Lyrics for acoustic guitar and electric guitar. Tablatures and chords are parodies/interpretations of the original songs. You may use it for private study, scholarship, research or language learning purposes only