» » »

The Bears Are Coming Chords (ver.1)

Artists:  A B C D E F G H I J K L M N O P Q R S T U V W X Y Z # 

The Bears Are Coming Chords (ver.1)

Late Of The Pier
Rating:
4/5 (2 votes)

Hard to play? Try these video lessons and learn fast.
                -------------------------------------------------------------------------------
-------------------------------------------------------------------------------

Tuning:Normal

These are the chords used throughout the verses, in this order.
Listen to the song to get the strumming correct.
Playing these chords as open chords sounds better in my opinion.

   C  A F
e|-8--5-1-------------------------------------------------------------------|
B|-8--5-1-------------------------------------------------------------------|
G|-9--6-2-------------------------------------------------------------------|
D|-10-7-3-------------------------------------------------------------------|
A|-10-7-3-------------------------------------------------------------------|
E|-8--5-1-------------------------------------------------------------------|

These are the chords to the outro part.
Requires fast strumming.
Again, refer back to the song to get timing and strumming correct.

e|--------------------------------------------------------------------------|
B|--------------------------------------------------------------------------|
G|-10-11-12-10-9-7-5--------------------------------------------------------|
D|-10-11-12-10-9-7-5--------------------------------------------------------|
A|-8--9--10-8--7-5-3--------------------------------------------------------|
E|--------------------------------------------------------------------------|


| /  slide up
| \  slide down
| h  hammer-on
| p  pull-off
| ~  vibrato
| +  harmonic
| x  Mute note
===============================================================================
            
Hard to play? Try these video lessons and learn fast. | Correct




comments powered by Disqus
↑ Back to top | Tablatures and chords are parodies/interpretations of the original songs. You may use it for private study, scholarship, research or language learning purposes only