» » »

Late Of The Pier, The Bears Are Coming Bass tabs (ver.1)

Artists:  A B C D E F G H I J K L M N O P Q R S T U V W X Y Z # 

The Bears Are Coming Bass tabs (ver.1)

Late Of The Pier Tabs
 Rating:
4.2/5 (5 votes)
The Bears Are Coming lessons Tabs too difficult? Try these video lessons and learn fast
                -------------------------------------------------------------------------------
-------------------------------------------------------------------------------


Tuning: normal (EADG)


Right. First of all bass isnt introduced into the song until around 1:35.
But Most people are impatient. So ive done what you can play up untill then, (it 
follows the synth)

After the clacking woody intro... it goes like this 2 times

G|-------------------------------------------------------------------------|
D|----2--------------------------------------------------------------------|
A|-3-3-3-0-00-30-----------------------------------------------------------|
E|---------------0-0-30-303030---------------------------------------------|

then below is done once

G|-------------------------------------------------------------------------|
D|---2---------------------------------------------------------------------|
A|-33-3003-----------------------------------------------------------------|
E|--------00300030---------------------------------------------------------|

now repeat the first section until...

G|-------------------------------------------------------------------------|
D|---------------222-------------------------------------------------------|
A|-3---3-0--0-------00-----------------------------------------------------|
E|------------0------------------------------------------------------------|

G|-------------------------------------------------------------------------|
D|-------------------------------------------------------------------------|
A|-3---3-0--0--------------------------------------------------------------|
E|------------0------------------------------------------------------------|

the above is done twice and then it goes into the first section again and then again 
the section above.


Now heres the bit you probably want, The "I saw you wading in the water|" part.
(took me an hour to work it all out. Lucky I was in the mood)


G|-------------------------------------------------------------------------|
D|---7-10-7--7-10------10--13-10-----10--13------10--14-10-----10--131210--|
A|--8-8----78-8--8/1011--11-----10-11--11--101112--12-----10/12--12--------|
E|-------------------------------------------------------------------------|

(continued)

G|---11--14-11----11--13-11-----9--13-9-----9--12119---9--12-9---9--12-----|
D|-12--12-----1112--12-----12\11-11-----9/11-11------10-10----910-10-------|
A|-------------------------------------------------------------------------|
E|-------------------------------------------------------------------------|

(continued)

G|-------------------------------------------------------------------------|
D|-----9--12-9---9--12--9-10-----------------------------------------------|
A|-8910-10----910-10--12---------------------------------------------------|
E|-------------------------------------------------------------------------|

wooo that took time to do. i assure that is accurate.

(Edit: just updated it, so interlude bit is now more correct :p)

it then goes back into theverse bars a couple more times (just scroll up to find them)
then theres a bit where no bass should be played (with the shakers and the coffee mug 
hit by a spoon)

then the retro ending which simply goes..


G|-----------------------------------------------------------------------|
D|-----------------------------------------------------------------------|
A|-8888888888/99999999991010101010101010\88888\777\555\333333333333333333|
E|-----------------------------------------------------------------------|

And that took me way to much time.
Send comments please or ask me stuffffff


| /  slide up
| \  slide down
| h  hammer-on
| p  pull-off
| ~  vibrato
| +  harmonic
| x  Mute note
===============================================================================
            
Submit corrections

comments powered by Disqus
↑ Back to top | Late Of The Pier Bass for The Bears Are Coming. Lyrics for acoustic guitar and electric guitar. Tablatures and chords are parodies/interpretations of the original songs. You may use it for private study, scholarship, research or language learning purposes only