» » »

Late Of The Pier, Space And The Woods Bass tabs (ver.1)

Artists:  A B C D E F G H I J K L M N O P Q R S T U V W X Y Z # 

Space And The Woods Bass tabs (ver.1)

Late Of The Pier Tabs
Rating:
5/5 (2 votes)
Space And The Woods lessons Tabs too difficult? Try these video lessons and learn fast
                
Tuning:Normal EADG

The main jist of it is this, nice and simple
                                  (Below are tens)

G|-------------------------------------------------------------------------|
D|-------------------------------------------------------------------------|
A|-7-7-7-7-7-7-7-7-454-0---54-0-0/10-10------------------------------------|
E|-----------------------0-------------------------------------------------|

or if it sounds better on your bass do it like this
                   Below are (tens and fifteens)

G|-------------------------------------------------------------------------|
D|-------------------------------------------------------------------------|
A|-7-7-7-7-7-7-7-7---------------------------------------------------------|
E|-----------------9109-5-0-109-5-0-5/15-15--------------------------------|


the chorus goes like this (again these are tens below, not ones and zeros)

G|-------------------------------------------------------------------------|
D|-------------------------------------------------------------------------|
A|-777777777---------------------------------------------------------------|
E|-----------1010910910\-555555555\-332323/--------------------------------|

then in the chorus it goessssssss

G|-------------------------------------------------------------------------|
D|-------------------------------------------------------------------------|
A|-------------------------------------------------------------------------|
E|-000000000222222222/555555555\332323\------------------------------------|

and then just before the verse come in again it goes

G|-------------------------------------------------------------------------|
D|-------------------------------------------------------------------------|
A|-777777777-----------------5556666---------------------------------------|
E|----------887878\-555555555----------------------------------------------|

(again instead you can do it differently for the chorus, im not going to tab it out but 
of continuosly playing the notes in the chorus you could keep the same "duh duh duh" as 
the verse. instead of "duhdudhduh"

hope you get what i mean :p
anyway here it goes quite fast
(the part where sam sings, "im sh*t hot so say what you think about me"...)

if you,listen closley you can hear the slide down from the tenth fret

G|-------------------------------------------------------------------------|
D|-------------------------------------------------------------------------|
A|-7777676765-45-10\--------910-910\---------------------------------------|
E|-------------------7766765-----------------------------------------------|

G|-------------------------------------------------------------------------|
D|-------------------------------------------------------------------------|
A|-7766765-----------------910-910\----------------------------------------|
E|--------65-35-10\-7766765------------------------------------------------|

and thats basicaly it, just do the chorus bits after this break im sure you can figure 
which ones to use. And be creative and add blank notes into the break where you pick fast 
sounds better.


| /  slide up
| \  slide down
| h  hammer-on
| p  pull-off
| ~  vibrato
| +  harmonic
| x  Mute note
===============================================================================
            
Submit corrections

comments powered by Disqus
↑ Back to top | Late Of The Pier Bass for Space And The Woods. Lyrics for acoustic guitar and electric guitar. Tablatures and chords are parodies/interpretations of the original songs. You may use it for private study, scholarship, research or language learning purposes only