» » »

Late Of The Pier, Space And The Woods Tabs (ver.1)

Artists:  A B C D E F G H I J K L M N O P Q R S T U V W X Y Z # 

Space And The Woods Tabs (ver.1)

Late Of The Pier Tabs
 Rating:
4.5/5 (8 votes)
Space And The Woods lessons Tabs too difficult? Try these video lessons and learn fast
1
                -----------------------------------------------------------------------------
-----------------------------------------------------------------------------

Tuning: Standard

Main Bass Riff:
e|--------------------------------------------------------------------------|
B|--------------------------------------------------------------------------|
G|--------------------------------------------------------------------------|
D|----------------------------------5---------------------------------------|
A|-7-7-7-7-7-7-7-7-4-5-4----5-4---------------------------------------------|
E|----------------------5-0-----5-0-----------------------------------------|

Synth Riff:
e|--------------------------------------------------------------------------|
B|-12-12-12---------10-10-10-------10-10-10---------10-10-10----------------|
G|----------12-11-9----------12-11----------12-11-9----------12-11----------|
D|--------------------------------------------------------------------------|
A|--------------------------------------------------------------------------|
E|--------------------------------------------------------------------------|


| /  slide up
| \  slide down
| h  hammer-on
| p  pull-off
| ~  vibrato
| +  harmonic
| x  Mute note
=============================================================================
            
Submit corrections

comments powered by Disqus
↑ Back to top | Late Of The Pier Tabs for Space And The Woods. Lyrics for acoustic guitar and electric guitar. 1 Tablatures and chords are parodies/interpretations of the original songs. You may use it for private study, scholarship, research or language learning purposes only