» » »

Broken Tabs (ver.1)

Artists:  A B C D E F G H I J K L M N O P Q R S T U V W X Y Z # 

Broken Tabs (ver.1)

Late Of The Pier
Rating:
5/5 (5 votes)
Tabs too difficult? Try these video lessons and learn fast.
                Broken tab, originally by late of the pier

Broken tab, originally by late of the pier

INTRO:

e---12------------------------12--------------------|
b---10---10------------------------12---9-----------|
G--------------11---11/12---------12---9------------|
D---------------------------------------------------|
A---------------------------------------------------|
E---------------------------------------------------|

e---12-12-12-12----------------------------------------------------------------|
b---12-12-12-12---(x4)----------------------14b---------------------------14b--|
G---12-12-12-12----------12------12--14--14b--12b-----12-----12--14--14b--12b--|
D---------------------------------14-----------------------------14------------|
A------------------------------------------------------------------------------|
E------------------------------------------------------------------------------|

e---12-14-12-12----------------------------------------------------------------------|
b---12-14-12-12---(couple times)---14b--12--14b--12--14b--14--12-12-12-12-12-(fast)--|
G---12-14-12-12-----------------------14b--12--14b--12--14b--14--12-12-12-12-12------|
D------------------------------------------------------------------------------------|
A------------------------------------------------------------------------------------|
E------------------------------------------------------------------------------------|

VERSE:

some chords i couldnt figure out...

e---------------------------------------------------------------------------------|
b---------------------------------------------------------------------------------|
G----------------------------------------4----------------------------------------|
D----------------4----------------7---------5------------------------4------------|
A----------5---------5-----5/7------5---------7--------------5--------5----5/7----|
E----5/7------7------------------------------------------5/7------7---------------|

----------------------|
----------------------|
---------4-----4h5p4--|
-7--------5-----------|
-5--------------------|
----------------------|

e---------------------------------------------------------------------------------|
b---------------------------------------------------------------------------------|
G----------------------------------------4----------------------------------------|
D----------------4----------------5---------5------------------------4------------|
A----------5---------5-----5/7------7---------7--------------5--------5----5/7----|
E----5/7------7------------------------------------------5/7------7---------------|

--------------------------|
--------------------------|
-------------9--9--9--9\--|
-5-----5------------------|
-7------------------------|
--------------------------|

CHORUS:

e-----15-----------------------------14------------------------|
b----------12-------12--------12---------(repeat)--------------|
G---------------14~~-----12~~----------------------------------|
D--------------------------------------------------------------|
A--------------------------------------------------------------|
E--------------------------------------------------------------|


SOLO:

e-----------------------------------------------------------------------------------------------|
b-------------------------------------------------------------------15/17\15~~---x-15-15-15-15--|
G---12--14br-14br--14b--14--12~~--12--14br--14br-14---------------------------------------------|
D-----------------------------------------------------------------------------------------------|
A-----------------------------------------------------------------------------------------------|
E-----------------------------------------------------------------------------------------------|

e--------------------------------------------------------------------|
b---15/17\15---12----------------------------------------------------|
G--------------------12~~--12--14br--12--9/12~~----------------------|
D--------------------------------------------------------------------|
A--------------------------------------------------------------------|
E--------------------------------------------------------------------|

e-----------------------------------------------------------------------------------------------|
b-------------------------------------------------------------------15/17\15~~---x-15-15-15-15--|
G---12--14br-14br--14b--14--12~~--12--14br--14br-14---------------------------------------------|
D-----------------------------------------------------------------------------------------------|
A-----------------------------------------------------------------------------------------------|
E-----------------------------------------------------------------------------------------------|

e-----14/15--14-------------------------------------------------|
b-------------------15--12---12--12br---------------------------|
G------------------------------------------12br---9br-----------|
D---------------------------------------------------------------|
A---------------------------------------------------------------|
E---------------------------------------------------------------|
            
Tabs too difficult? Try these video lessons and learn fast.


comments powered by Disqus
↑ Back to top | Tablatures and chords are parodies/interpretations of the original songs. You may use it for private study, scholarship, research or language learning purposes only