» » »

Latency, Tonight I Love You Tabs (ver.1)

Artists:  A B C D E F G H I J K L M N O P Q R S T U V W X Y Z # 

Tonight I Love You Tabs (ver.1)

Latency Tabs
Rating:
4/5 (1 vote)
Tonight I Love You lessons Tabs too difficult? Try these video lessons and learn fast
                (Intro)
-------------------------------------------------------------------------------
                             TONIGHT, I LOVE YOU - The Latency
-------------------------------------------------------------------------------

*A/N* I haven't quite figured it all out yet, but I figured that I should put this up 
and finish it once I've worked out the whole song. I know it's not perfect, but it sounds 
to me. So please enjoy =] and any corrections would be appreciated. =D

Tuning: Standard [EADGBe]

Intro:
e|--6-6-6-6-4-4-4-4-9-9-9-9-4-4-4-4-----------|
B|---7-7-7-7-7-7-7-7-7-7-7-7-7-7-7-7----------|
G|--------------------------------------------|
D|--------------------------------------------|
A|--------------------------------------------|
E|--------------------------------------------|

e|--6-6-6-6-4-4-4-----------------------------|
B|---7-7-7-7-7-7-7----------------------------|
G|-----------------1/3-4-3-6~-----------------|
D|--------------------------------------------|
A|--------------------------------------------|
E|--------------------------------------------|

e|--------------------------------------------|
B|--------------------------------------------|
G|------6----4----6---------------------------|
D|-4----6----4----6---------------------------|
A|-4----4----2----4---------------------------|
E|-2------------------------------------------|

It's a beautiful night and I'm opened up
The look in your eyes says so much
Nothing can touch us out here
Don't know where we are but I know I see
A beautiful girl walking next to me
I need to hold you, my dear

e|--------------------------------------------|
B|--------------------------------------------|
G|--------4------------4-----6----------------|
D|--6-----4-----6------4-----6----------------|
A|--6-x8--2-x8--6--x8--2-x4--4-x4-------------|
E|--4-----------4-----------------------------|

Let's just take tonight, tonight slow
Cause I want to see where this, where this goes
(I need you)

(CHORDS SAME AS VERSE)
I'd give you today but it's not mine yet
I'll ask you to stay here with me ‘till then
I think I'm falling for you
(falling for you, I need you)
I just want to look in your eyes and see
All that you have looking back at me
I think tonight, I love you
(I love you)


| /  slide up
| \  slide down
| h  hammer-on
| p  pull-off
| ~  vibrato
| +  harmonic
| x  Mute note
============================================================================
            

comments powered by Disqus
↑ Back to top | Latency Tabs for Tonight I Love You. Lyrics for acoustic guitar and electric guitar. Tablatures and chords are parodies/interpretations of the original songs. You may use it for private study, scholarship, research or language learning purposes only