» » »

Latency, Slash Burn Tabs (ver.1)

Artists:  A B C D E F G H I J K L M N O P Q R S T U V W X Y Z # 

Slash Burn Tabs (ver.1)

Latency Tabs
 Rating:
4/5 (4 votes)
Slash Burn lessons Tabs too difficult? Try these video lessons and learn fast
1
                -------------------------------------------------------------------------------
			     Latency - Slash Burn
-------------------------------------------------------------------------------

Standard Tuning

Intro:  (light distortion with delay effect)
e|---------------------------------|--------------------------------------------|
B|---------------------------------|--------------------------------------------|
G|---------------------------------|--------------------------------------------|
D|---------------------------------|--------------------------------------------|
A|---------------------------------|--------------------------------------------|
E|--0-0-0-0-0-8-8-8-11-11-11-15-15-|--0-x-0-x-0-8-8-8-11-11-11-15-15--12-12-12-8|
	(repeat X2)			(end intro X1)

Pre-Verse:  (Heavy distortion w/o delay effect)
e|------------------------------------------------------------------------------|
B|------------------------------------------------------------------------------|
G|------------------------------------------------------------------------------|
D|------------------------------------------------------------------------------|
A|------------------------------------------------------------------------------|
E|-0-0-0-0-0-0-0-0-11-11-11-8-8-8-8---------------------------------------------|
	(Repeat 4X then to Verse)

Verse:	(Heavy distortion w/ Palm Mute)
e|----------------------------------|--------------------------------------------|
B|----------------------------------|--------------------------------------------|
G|----------------------------------|--------------------------------------------|
D|----------------------------------|--------------------------------------------|
A|----------------------------------|--------------------------------------------|
E|-0-0-0-0-0-0-0-0-11-11-11-8-8-8-8-|-0-0-0-0-0-0-0-0-11-11-11-8-----------------|
	(Repeat 3X)			(1X then to Chorus)

Chorus: (Heavy Distorion 2X)
e|--------------------------|----------------------------------------------------|
B|--------------------------|----------------------------------------------------|
G|--------------------------|----------------------------------------------------|
D|--------------------------|----------------------------------------------------|
A|-0-0-0-0-0-0-11-11-8-8----|---5-5-5-5-5-5-7-7-7-10-10-10-10--------------------|
E|-0-0-0-0-0-0-11-11-8-8----|---5-5-5-5-5-5-5-5-5--8--8--8--8--------------------|
	(Repeat 3X)		(After 3rd repeat play this then Repeat whole chorus)

Solo-Interlude:	(light distortion) - Right after second chorus
e|-(12)(7)(12)----------(12)(7)--------------(12)(7)(12)----------(12)(7)----------|
B|------------(7)(12)----------(12)(7)------------------(7)(12)----------(12)(7)---|
G|-------------------(7)--------------(12)(7)------------------(7)--------------(7)|
D|---------------------------------------------------------------------------------|
A|---------------------------------------------------------------------------------|
E|---------------------------------------------------------------------------------|

e|-(15)(12)(7)(12)-------(15)(12)(7)(12)------(15)(12)(7)(12)------(12)----(12)----|
B|----------------(7)-------------------(7)------------------(7)-------(12)----(12)|
G|-------------------(7)-------------------(7)------------------(7)----------------|
D|---------------------------------------------------------------------------------|
A|---------------------------------------------------------------------------------|
E|---------------------------------------------------------------------------------|

e|----------(12)----(12)--------(5)--(12)----(12)------------(12)----(12)-------(5)|
B|----(7)-------(12)----(12)-(7)---------(12)----(12)---(7)------(12)----(12)(7)---|
G|-(7)-----------------------------------------------(7)---------------------------|
D|---------------------------------------------------------------------------------|
A|---------------------------------------------------------------------------------|
E|---------------------------------------------------------------------------------|

e|-(12)----------------------------------------------------------------------------|
B|-----(12)-5----------------------------------------------------------------------|
G|------------7/2/4/6/8------------------------------------------------------------|
D|----------------------4~---------------------------------------------------------|
A|---------------------------------------------------------------------------------|
E|---------------------------------------------------------------------------------|

ORDER:  Intro
	Pre-verse
	Verse
	Chorus
	Pre-verse
	Verse
	Chorus
	Solo-interlude
	Chorus
            
Submit corrections

comments powered by Disqus
↑ Back to top | Latency Tabs for Slash Burn. Lyrics for acoustic guitar and electric guitar. 1 Tablatures and chords are parodies/interpretations of the original songs. You may use it for private study, scholarship, research or language learning purposes only