» » »

Latency, Fork In The Road Tabs (ver.1)

Artists:  A B C D E F G H I J K L M N O P Q R S T U V W X Y Z # 

Fork In The Road Tabs (ver.1)

Latency Tabs
 Rating:
4/5 (4 votes)
Fork In The Road lessons Tabs too difficult? Try these video lessons and learn fast
1
                (Intro)
-----------------------------------------------------------------------------
                             Fork in the Road - The Latency
-----------------------------------------------------------------------------

*Most would think that the intro is only composed of single notes but if you watch Ryan 
you'll notice him playing a couple of notes. Enjoy!

The counting's: 1 2 3, 1 2 3... etc

This is also played before going into the second verse :)*

Tuning: Half-step lower.
        Eb - Ab - Db - Gb - Bb - eb
        *tabs in relation to halftone lower tuning*

e|----------------------------------------------------------------------|
B|-----10-------10-----------8--------8---------------------------------|
G|---------0--------0------------7-------7------------------------------|
D|----------------------------------------------------------------------|
A|-----10-----10-------------5------5-----------------------------------|
E|----------------------------------------------------------------------|

e|----------------------------------------------------------------------|
B|-----7--------7-------------------------------------------------------|
G|---------5-------5----------7---------7-------------------------------|
D|---------------------------------5-------5----------------------------|
A|-----3------3----------------5------5---------------------------------|
E|----------------------------------------------------------------------|

e|----------------------------------------------------------------------|
B|----8/10-----10----------7--------7/8---------------------------------|
G|----------------------------7---------------9-------7-----------------|
D|----5------7-----7-----------------------------7--------9b9-----------|
A|-------------------------5------5-----------7-----7-------------------|
E|----------------------------------------------------------------------|

************************************

| /   slide up
| \   slide down
| h   hammer-on
| p   pull-off
| ~   vibrato
| +   harmonic
| x   Mute note
| b   Bend
| pb  Pre-bend
| br  Bend release
| pbr Pre-bend release
| brb Bend release bend

************************************
            
Submit corrections

comments powered by Disqus
↑ Back to top | Latency Tabs for Fork In The Road. Lyrics for acoustic guitar and electric guitar. 1 Tablatures and chords are parodies/interpretations of the original songs. You may use it for private study, scholarship, research or language learning purposes only