>
 >
Hide Your Eyes

Hide Your Eyes Guitar Tabs

Last Winter - Hide Your Eyes chords, tabs, tablatures, lyrics

Guitar lessons | Add/correct | Request | Top 50 tabs Artists:  A B C D E F G H I J K L M N O P Q R S T U V W X Y Z 0-9

Hide Your Eyes Guitar Tabs – Last Winter

CD, Sheet music, Poster

Do you like Hide Your Eyes? Share with your friends now
Tabs
Band: Last Winter
Tuning: Bb F Bb Eb G C

[Intro] [Lead] [00:04]
c --------------------------------------|
g --------------------------------------|
Eb--------------------------------------|
Bb--------7----7---------7----7---------|
F ------5----5--------5----5------------|
Bb--5------------5----------------------|

[Intro] [Rhythm] [00:10]
c -------------------------------------------------------------------|
g -------------------------------------------------------------------|
Eb-------------------------------------------------------------------|
Bb--0-00-0-0-00-0---5-55-5-5-55-5---9-99-9-9-99-9---5-55-5-5-55-5----|
F --0-00-0-0-00-0---5-55-5-5-55-5---9-99-9-9-99-9---5-55-5-5-55-5----|
Bb--0-00-0-0-00-0---5-55-5-5-55-5---9-99-9-9-99-9---5-55-5-5-55-5----|

[Lead] [00:21]
c -------------------------------------------------------------------------|
g ------------15~-14~------------------15~-14~-----------------------------|
Eb-->14----14---------14-14-14-14--14----------14-14-14-14--14~12~11~-14~--|
Bb-------------------------------------------------------------------------|
F -------------------------------------------------------------------------|
Bb-------------------------------------------------------------------------|

[Versus] [Rhythm] [00:34]
c----------------------------------------------------------------------|
g----------------------------------------------------------------------|
Eb---------------------------------------------------------------------|
Bb-00000000000000000000000000000000--9999999999999999-5555555555555555-|
F--00000000000000000000000000000000--9999999999999999-5555555555555555-|
Bb-00000000000000000000000000000000--9999999999999999-5555555555555555-|
 pm...................................................................

Cont.[Versus] [Rhythm]
c----------------------------------------------------------------------|
g----------------------------------------------------------------------|
Eb---------------------------------------------------------------------|
Bb-00000000000000000000000000000000--9999999999999999-5-5-5-5-5-5-5-5--|
F--00000000000000000000000000000000--9999999999999999-5-5-5-5-5-5-5-5--|
Bb-00000000000000000000000000000000--9999999999999999-5-5-5-5-5-5-5-5--|
 pm..................................................

[Versus] [Lead] [00:34]
c --------------------------------------------------------------------|
g---------------------------------------------------------------------|
Eb--1414141414141414141414141414141414141414141414141414141414141414--|
Bb--------------------------------------------------------------------|
F --------------------------------------------------------------------|
Bb--------------------------------------------------------------------|
pm...................................................................

c-----------------------------------------------------------------------|
g-----------------------------------------------------------------------|
Eb-14141412121211111111111111111111-14141414141414141414141414141414----|
Bb----------------------------------------------------------------------|
F-----------------------------------------------------------------------|
Bb----------------------------------------------------------------------|
                                   Pm................................
Cont.[Lead] [00:44]
c --------------------------------------------------------------------|
g --------------------------------------------------------------------|
Eb---1414141414141414141414141414141414141414141414141414141414141414-|
Bb--------------------------------------------------------------------|
F --------------------------------------------------------------------|
Bb--------------------------------------------------------------------|
pm....................................................................

Cont.[Lead] [00:52]
c ---------------------------------------------------|
g ---------------15~-14~--------------------15~-14~--|
Eb---14-14-14-------------14-14-14-14--14------------|
Bb---------------------------------------------------|
F ---------------------------------------------------|
Bb---------------------------------------------------|

[Chorus] [Rhythm] [00:58]
c ---------------------------------------------------------------------|
g ---------------------------------------------------------------------|
Eb---------------------------------------------------------------------|
Bb--0-00-0-0-00-0---5-55-5-5-55-5---9-99-9-9-99-9---5-55-5-5-55-5------|
F --0-00-0-0-00-0---5-55-5-5-55-5---9-99-9-9-99-9---5-55-5-5-55-5------|
Bb--0-00-0-0-00-0---5-55-5-5-55-5---9-99-9-9-99-9---5-55-5-5-55-5------|

[Chorus] [Lead] [00:58]
c --------------------------------------------------------------------------|
g -----15~-14~-----------------15~-14~--------------------------------------|
Eb--14---------14-14-14-14--14---------14-14-14-14--14-14-14-12-12-12-11-11-|
Bb--------------------------------------------------------------------------|
F --------------------------------------------------------------------------|
Bb--------------------------------------------------------------------------|

Cont. [Lead] [01:07]
c -------------------------------------------------------------------------|
g -------------------------------------------------------------------------|
Eb-11-11-11-11-11-11-11-11-14-14-14-14-14-14-14-14-14-14-14-14-14-14-14-14-|
Bb-------------------------------------------------------------------------|x2
F -------------------------------------------------------------------------|
Bb-------------------------------------------------------------------------|

[Versus][Lead] [01:22]
c -----------------------------------------------------------------------|
g -----------------------------------------------------------------------|
Eb-----1414141414141414141414141414141414141414141414141414141414141414--|
Bb-----------------------------------------------------------------------|
F -----------------------------------------------------------------------|
Bb-----------------------------------------------------------------------|
pm......................................................................

Cont. [Lead]
c ------------------------------------------------------------|
g -----------15-15-15-14-14-14-14-14-14-14-14-14-14-----------|
Eb--14-14-14--------------------------------------------------|
Bb------------------------------------------------------------|
F ------------------------------------------------------------|
Bb------------------------------------------------------------|

Cont. [Lead] [01:31]
c -------------------------------------------------------|
g -------------------------------------------------------|
Eb--14-14-14-14-14-14-14-14-14-14-14-14-14b14b14b14b-----|
Bb-------------------------------------------------------|
F -------------------------------------------------------|
Bb-------------------------------------------------------|

Cont. [Lead] [01:34]
c ---55555555555555555555555555555555---9999999999999999999999999999----|
g ---xxxxxxxxxxxxxxxxxxxxxxxxxxxxxxxx---xxxxxxxxxxxxxxxxxxxxxxxxxxxx----|
Eb---22222222222222222222222222222222---6666666666666666666666666666----|
Bb----------------------------------------------------------------------|
F ----------------------------------------------------------------------|
Bb----------------------------------------------------------------------|

[Chorus] [Rhythm] [01:46]
c ----------- -------------------------------------------------------------|
g ----------- -------------------------------------------------------------|
Eb----------- -------------------------------------------------------------|
Bb--///12\\\- -0-00-0-0-00-0--5-55-5-5-55-5--9-99-9-9-99-9--5-55-5-5-55-5--| x2
F --///12\\\- -0-00-0-0-00-0--5-55-5-5-55-5--9-99-9-9-99-9--5-55-5-5-55-5--|
Bb--///12\\\- -0-00-0-0-00-0--5-55-5-5-55-5--9-99-9-9-99-9--5-55-5-5-55-5--|

[Chorus] [Lead] x2

[Bridge] [Rhythm] [02:10]
c ---------------------------------------------------------------------|
g ---------------------------------------------------------------------|
Eb---------------------------------------------------------------------|
Bb---0----------------5-55-5-5-55-5--9-99-9-9-99-9---5-55-5-5-5-/12\---| x2
F----0----------------5-55-5-5-55-5--9-99-9-9-99-9---5-55-5-5-5-/12\---|
Bb---0--17-16-17-16---5-55-5-5-55-5--9-99-9-9-99-9---5-55-5-5-5-/12\---|

[Bridge] [Lead] [02:10]
c-------------------------------------------------------------------------|
g-------------------------------------------------------------------------|
Eb--7---12--11--12--11-1414141414141414-1414141414141414-1414141414141414-|
Bb--x---x---x---x---x--x-x-x-x-x-x-x-x--x-x-x-x-x-x-x-x--x-x-x-x-x-x-x-x--| x2
F---5---10--9---10--9--1212121212121212-1212121212121212-1212121212121212-|
Bb------------------------------------------------------------------------|

[Breakdown] [Lead] [02:34]
c ----------------------------------------------------------------------|
g -------15~-14~-------------15~-14~--------------15~-14~---------15>---|
Eb--14-----------14-14--14-------------14-14--14------------------------|
Bb----------------------------------------------------------------------|
F ----------------------------------------------------------------------|
Bb----------------------------------------------------------------------|

[02:34] [Extra Guitar Fill] [02:40]
c---0~~~~------  -55555555555555555555555555555555----|
g---3~~~~------  -xxxxxxxxxxxxxxxxxxxxxxxxxxxxxxxx----|
Eb--2~~~~------  -22222222222222222222222222222222----|
Bb--0~~~~------  -------------------------------------|
F---0~~~~------  -------------------------------------|
Bb--0~~~~------  -------------------------------------|

[Chorus] Rhythm [02:46] x2

[Chorus] [Rhythm] [03:10]
c--------------------------------------------------------------------|
g--------------------------------------------------------------------|
Eb-------------------------------------------------------------------|
Bb--0--0-x-x-0--0-x-x-0---5--5-x-x-5--5-x-x-5---9--9-x-x-9--9-x-x-9--|
F---0--0-x-x-0--0-x-x-0---5--5-x-x-5--5-x-x-5---9--9-x-x-9--9-x-x-9--|
Bb--0--0-x-x-0--0-x-x-0---5--5-x-x-5--5-x-x-5---9--9-x-x-9--9-x-x-9--|

Cont. [Chorus] [Rhythm]
c-----------------------------------|
g-----------------------------------|
Eb----------------------------------|
Bb--5--5-x-x-5--5-x-x-5-------------| x1
F---5--5-x-x-5--5-x-x-5-------------|
Bb--5--5-x-x-5--5-x-x-5-------------|

[Chorus] [Lead] [02:46]
c --------------------------------------------------------------------------|
g -----15~-14~-----------------15~-14~--------------------------------------|
Eb--14---------14-14-14-14--14---------14-14-14-14--14-14-14-12-12-12-11-11-|
Bb--------------------------------------------------------------------------|
F --------------------------------------------------------------------------|
Bb--------------------------------------------------------------------------|

Cont. [Lead]
c --------------------------------------------------------------------------|
g --------------------------------------------------------------------------|
Eb-11-11-11-11-11-11-11-11-14-14-14-14-14-14-14-14-14-14-14-14-14-14-14-14--|
Bb--------------------------------------------------------------------------| x1
F --------------------------------------------------------------------------|
Bb--------------------------------------------------------------------------|

Cont. [Lead]
c --------------------------------------------------------------------------|
g -----15~-14~-----------------15~-17~--------------------------------------|
Eb--14---------14-14-14-14--14---------14-14-14-14--14-14-14-12-12-12-11-11-|
Bb--------------------------------------------------------------------------|
F --------------------------------------------------------------------------|
Bb--------------------------------------------------------------------------|

Cont. [Lead]
c --------------------------------------------------------------------------|
g --------------------------------------------------------------------------|
Eb-11-11-11-11-11-11-11-11-14-14-14-14-14-14-14-14-14-14-14-14-14-14-14-14--|
Bb--------------------------------------------------------------------------| x2
F --------------------------------------------------------------------------|
Bb--------------------------------------------------------------------------|

[Outro] [Lead] [03:22]
c ------------------------------------------------------------------|
g -----15~-14~------------------15~-17~-----------------------------|
Eb--14----------14-14-14-14--14--------------14>---12>---11>---14>--|
Bb------------------------------------------------------------------|
F ------------------------------------------------------------------|
Bb------------------------------------------------------------------|

[Outro] [Rhythm] [03:28]
c--------------------|
g--------------------|
Eb-------------------|
Bb----9~--------5~---|
F-----9~--------5~---|
Bb----9~--------5~---|





Comments


Popular Last Winter tabs & chords
Girl Next Door Bass Tabs
Standing Here Chords
A Pacific Romance Tabs
Don't Forget To Write Tabs
Don't Forget To Write 1 Tabs
Vela To Norma Intro Tabs
Standing Here Ukulele


Song lyrics



↑ Back to top | Tablatures and chords are parodies/interpretations of the original songs. You may use it for private study, scholarship, research or language learning purposes only
© 2014 AZChords.com Contact us | Privacy policy | DMCA | Add/correct tabs | Request tabs | Top 50 tabs