>
 >
A Pacific Romance

A Pacific Romance Guitar Tabs

Last Winter - A Pacific Romance chords, tabs, tablatures, lyrics

Guitar lessons | Add/correct | Request | Top 50 tabs Artists:  A B C D E F G H I J K L M N O P Q R S T U V W X Y Z 0-9

A Pacific Romance Guitar Tabs – Last Winter

CD, Sheet music, Poster

Do you like A Pacific Romance? Share with your friends now
Tabs
----------------------------------------------------------------------------
                                LAST WINTER
                             A PACIFIC ROMANCE
----------------------------------------------------------------------------
Usersname: dkm817 (same one on xbox live)

Thank you for viewing my tab and note this one was hard to make because of how quiet the 
3 was. Enjoy!

Guitar 1 (C G C F A D)
Guitar 2 (C G C F A D)
Guitar 3 (C G C F A D)

Intro part 1 (00:00)-(00:10)

Guitar 2
D-----------------------------------------------------------------|
A-9-9-9-9-9-9-9-9-9-9-9-9-9-9-9-9-9-9-9-9-9-9-9-9-9-9-9-9-9-9-9-9-|
F-9-9-9-9-9-9-9-9-9-9-9-9-9-9-9-9-9-9-9-9-9-9-9-9-9-9-9-9-9-9-9-9-|
C-7-7-7-7-7-7-7-7-7-7-7-7-7-7-7-7-7-7-7-7-7-7-7-7-7-7-7-7-7-7-7-7-|
G-----------------------------------------------------------------|
C-----------------------------------------------------------------|

Intro part 2 (00:10)-(00:22)

Guitar 1
D-------------------------------------------|
A-------------------------------------------|
F-------------------------------------------|
C-2~~-4-4-x-x-4-4---4-2--2-2-x-x-2-2---4-2--| x2
G-2~~-4-4-x-x-4-4---4-2--2-2-x-x-2-2---4-2--|
C-2~~-4-4-x-x-4-4---4-2--2-2-x-x-2-2---4-2--|

Guitar 2
D-10-10-10-10-10-10-10-10-9-9-9-9-9-9-9-9-14-14-14-14-14-14-14-14-|
A-10-10-10-10-10-10-10-10-9-9-9-9-9-9-9-9-14-14-14-14-14-14-14-14-|
F-8--8--8--8--8--8--8--8--7-7-7-7-7-7-7-7-12-12-12-12-12-12-12-12-|
C-----------------------------------------------------------------|
G-----------------------------------------------------------------|
C-----------------------------------------------------------------|

Guitar 2
D-10-10-10-10-9-9-9-9-|
A-10-10-10-10-9-9-9-9-|
F-8--8--8--8--7-7-7-7-|
C---------------------|
G---------------------|
C---------------------|

Guitar 3
D-----------------------------------------------------|
A-----------------------------------------------------|
F-----------------------------------------------------|
C----------4-5-7--4-5-7-5-2----------4-5-7--4-5-7-5-2-|
G-----------------------------------------------------|
C-----------------------------------------------------|

Verse 1 (00:22)-(00:32)

Guitar 2
D-----------------------------------------------------------------|
A-9-9-9-9-9-9-9-9-9-9-9-9-9-9-9-9-9-9-9-9-9-9-9-9-9-9-9-9-9-9-9-9-|
F-9-9-9-9-9-9-9-9-9-9-9-9-9-9-9-9-9-9-9-9-9-9-9-9-9-9-9-9-9-9-9-9-|
C-7-7-7-7-7-7-7-7-7-7-7-7-7-7-7-7-7-7-7-7-7-7-7-7-7-7-7-7-7-7-7-7-|
G-----------------------------------------------------------------|
C-----------------------------------------------------------------|

Guitar 3
D---------------------------------------------------------|
A---------------------------------------------------------|
F---------------------------------------------------------|
C--4-6-7--4-6-7--4-6-7--4-6-7--4-6-7--4-6-7--4-6-7--4-6-7-|
G---------------------------------------------------------|
C---------------------------------------------------------|

Verse 2 (00:32)-(00:42)

Guitar 1
D----------------------------|
A-----10---10-----10---10----|
F----------------------------|
C--------------------------7-|
G--------------------------7-|
C--------------------------7-|

Guitar 2
D-----------------------------------------------------------------|
A-9-9-9-9-9-9-9-9-9-9-9-9-9-9-9-9-9-9-9-9-9-9-9-9-9-9-9-9-9-9-9-9-|
F-9-9-9-9-9-9-9-9-9-9-9-9-9-9-9-9-9-9-9-9-9-9-9-9-9-9-9-9-9-9-9-9-|
C-7-7-7-7-7-7-7-7-7-7-7-7-7-7-7-7-7-7-7-7-7-7-7-7-7-7-7-7-7-7-7-7-|
G-----------------------------------------------------------------|
C-----------------------------------------------------------------|

Guitar 3 same timing as guitar 1
D----------------------------|
A----------------------------|
F----------------------------|
C--------------------------7-|
G--------------------------7-|
C--------------------------7-|

Chorus x2 (00:43)-(01:04) Short gap between if you know what that tab is please correct

Guitar 1
D-----------------------------------------------------------------|
A-----------------------------------------------------------------|
F-----------------------------------------------------------------|
C-7-7-7-7-7-7-7-7-2-2-2-2-2-2-2-2-4-4-4-4-4-4-4-4-2-2-2-2-2-2-2-2-|
G-7-7-7-7-7-7-7-7-2-2-2-2-2-2-2-2-4-4-4-4-4-4-4-4-2-2-2-2-2-2-2-2-|
C-7-7-7-7-7-7-7-7-2-2-2-2-2-2-2-2-4-4-4-4-4-4-4-4-2-2-2-2-2-2-2-2-|

Guitar 2
D---------------------------------------------------------|
A---9-10---9-10---9-10---9-10---9-10---9-10---9-10---9-10-|
F-8------8------8------8------8------8------8------8------|
C---------------------------------------------------------|
G---------------------------------------------------------|
C---------------------------------------------------------|

Verse 1 (01:04)-(01:14)

Guitar 2
D-----------------------------------------------------------------|
A-9-9-9-9-9-9-9-9-9-9-9-9-9-9-9-9-9-9-9-9-9-9-9-9-9-9-9-9-9-9-9-9-|
F-9-9-9-9-9-9-9-9-9-9-9-9-9-9-9-9-9-9-9-9-9-9-9-9-9-9-9-9-9-9-9-9-|
C-7-7-7-7-7-7-7-7-7-7-7-7-7-7-7-7-7-7-7-7-7-7-7-7-7-7-7-7-7-7-7-7-|
G-----------------------------------------------------------------|
C-----------------------------------------------------------------|

Guitar 3
D---------------------------------------------------------|
A---------------------------------------------------------|
F---------------------------------------------------------|
C--4-6-7--4-6-7--4-6-7--4-6-7--4-6-7--4-6-7--4-6-7--4-6-7-|
G---------------------------------------------------------|
C---------------------------------------------------------|

Verse 2 (01:14)-(01:24)

Guitar 1
D----------------------------|
A-----10---10-----10---10----|
F----------------------------|
C--------------------------7-|
G--------------------------7-|
C--------------------------7-|

Guitar 2
D-----------------------------------------------------------------|
A-9-9-9-9-9-9-9-9-9-9-9-9-9-9-9-9-9-9-9-9-9-9-9-9-9-9-9-9-9-9-9-9-|
F-9-9-9-9-9-9-9-9-9-9-9-9-9-9-9-9-9-9-9-9-9-9-9-9-9-9-9-9-9-9-9-9-|
C-7-7-7-7-7-7-7-7-7-7-7-7-7-7-7-7-7-7-7-7-7-7-7-7-7-7-7-7-7-7-7-7-|
G-----------------------------------------------------------------|
C-----------------------------------------------------------------|

Guitar 3 same timing as guitar 1
D----------------------------|
A----------------------------|
F----------------------------|
C--------------------------7-|
G--------------------------7-|
C--------------------------7-|

Chorus x2 (01:25)-(01:47)

Guitar 1
D-----------------------------------------------------------------|
A-----------------------------------------------------------------|
F-----------------------------------------------------------------|
C-7-7-7-7-7-7-7-7-2-2-2-2-2-2-2-2-4-4-4-4-4-4-4-4-2-2-2-2-2-2-2-2-|
G-7-7-7-7-7-7-7-7-2-2-2-2-2-2-2-2-4-4-4-4-4-4-4-4-2-2-2-2-2-2-2-2-|
C-7-7-7-7-7-7-7-7-2-2-2-2-2-2-2-2-4-4-4-4-4-4-4-4-2-2-2-2-2-2-2-2-|

Guitar 2
D---------------------------------------------------------|
A---9-10---9-10---9-10---9-10---9-10---9-10---9-10---9-10-|
F-8------8------8------8------8------8------8------8------|
C---------------------------------------------------------|
G---------------------------------------------------------|
C---------------------------------------------------------|

Interlude x2 (01:47)-(02:08)

Guitar 1
D-----------------------------------------------------------------|
A-----------------------------------------------------------------|
F-----------------------------------------------------------------|
C-7-7-7-7-7-7-7-7-2-2-2-2-2-2-2-2-4-4-4-4-4-4-4-4-2-2-2-2-2-2-2-2-|
G-7-7-7-7-7-7-7-7-2-2-2-2-2-2-2-2-4-4-4-4-4-4-4-4-2-2-2-2-2-2-2-2-|
C-7-7-7-7-7-7-7-7-2-2-2-2-2-2-2-2-4-4-4-4-4-4-4-4-2-2-2-2-2-2-2-2-|

Guitar 2
D---------------------------------------------------------|
A---9-10---9-10---9-10---9-10---9-10---9-10---9-10---9-10-|
F-8------8------8------8------8------8------8------8------|
C---------------------------------------------------------|
G---------------------------------------------------------|
C---------------------------------------------------------|

Bridge with a somewhat of a guitar solo (02:08)-(02:40)

Guitar 1
D-------------------------------------------------------------------|
A-------------------------------------------------------------------|
F-------------------------------------------------------------------|
C-7~~~~~~~~~~~~~~~~-8pm-8pm-8pm-8pm-8pm-8pm-8pm-8pm-8-8-8-8-8-8-8-8-|
G-7~~~~~~~~~~~~~~~~-8pm-8pm-8pm-8pm-8pm-8pm-8pm-8pm-8-8-8-8-8-8-8-8-|
C-7~~~~~~~~~~~~~~~~-8pm-8pm-8pm-8pm-8pm-8pm-8pm-8pm-8-8-8-8-8-8-8-8-|

Guitar 2
D-13-------13-------13-------13-------13-------13-------13-------13-------|
A-------------------------------------------------------------------------|
F----13-14----13-14----13-14----13-14----13-14----13-14----13-14----13-14-|
C-------------------------------------------------------------------------|
G-------------------------------------------------------------------------|
C-------------------------------------------------------------------------|

Guitar 1
D-----------------------------------------------------------------|
A-----------------------------------------------------------------|
F-----------------------------------------------------------------|
C-7-7-7-7-7-7-7-7-2-2-2-2-2-2-2-2-4-4-4-4-4-4-4-4-2-2-2-2-2-2-2-2-|
G-7-7-7-7-7-7-7-7-2-2-2-2-2-2-2-2-4-4-4-4-4-4-4-4-2-2-2-2-2-2-2-2-|
C-7-7-7-7-7-7-7-7-2-2-2-2-2-2-2-2-4-4-4-4-4-4-4-4-2-2-2-2-2-2-2-2-|

Guitar 2
D-13~~~~~~~~-12~/11~/10~8-----------------------------|
A-------------------------10-9---10-9---10-9---10-9---|
F------------------------------8------8------8------8-|
C-----------------------------------------------------|
G-----------------------------------------------------|
C-----------------------------------------------------|

Guitar 3
D---------------------------------------------------------|
A---------------------------------------------------------|
F---------------------------------------------------------|
C--4-6-7--4-6-7--4-6-7--4-6-7--4-6-7--4-6-7--4-6-7--4-6-7-|
G---------------------------------------------------------|
C---------------------------------------------------------|

Guitar 1
D-------------------------------------------------------------------------|
A-------------------------------------------------------------------------|
F-------------------------------------------------------------------------|
C-7-7-7-7-7-7-7-7-2-2-2-2-2-2-2-2-4-4-4-4-4-4-4-4-2-2-2-2-2-2-2-2-9-x-9-x-|
G-7-7-7-7-7-7-7-7-2-2-2-2-2-2-2-2-4-4-4-4-4-4-4-4-2-2-2-2-2-2-2-2-9-x-9-x-|
C-7-7-7-7-7-7-7-7-2-2-2-2-2-2-2-2-4-4-4-4-4-4-4-4-2-2-2-2-2-2-2-2-7-x-7-x-|

Guitar 2
D---------------------------------------------------------|
A-10-9---10-9---10-9---10-9---10-9---10-9---10-9---10-9---|
F------8------8------8------8------8------8------8------8-|
C---------------------------------------------------------|
G---------------------------------------------------------|
C---------------------------------------------------------|

Guitar 3
D--------------------------------------------------------|
A--------------------------------------------------------|
F--------------------------------------------------------|
C-4-6-7--4-6-7--4-6-7--4-6-7--4-6-7--4-6-7--4-6-7--4-6-7-|
G--------------------------------------------------------|
C--------------------------------------------------------|

Chorus (02:40)-(02:59)

Guitar 1
D-----------------------------------------------------------------|
A-----------------------------------------------------------------|
F-----------------------------------------------------------------|
C-7-7-7-7-7-7-7-7-2-2-2-2-2-2-2-2-4-4-4-4-4-4-4-4-2-2-2-2-2-2-2-2-|
G-7-7-7-7-7-7-7-7-2-2-2-2-2-2-2-2-4-4-4-4-4-4-4-4-2-2-2-2-2-2-2-2-|
C-7-7-7-7-7-7-7-7-2-2-2-2-2-2-2-2-4-4-4-4-4-4-4-4-2-2-2-2-2-2-2-2-|

Guitar 2
D---------------------------------------------------------|
A---9-10---9-10---9-10---9-10---9-10---9-10---9-10---9-10-|
F-8------8------8------8------8------8------8------8------|
C---------------------------------------------------------|
G---------------------------------------------------------|
C---------------------------------------------------------|

Outro (02:59)-(03:14)

Guitars 1 and 2
D----------------------------------------------------|
A----------------------------------------------------|
F----------------------------------------------------|
C-2-2-2-2-2-2-2-2-2-2-2-2-2-2-2-2-0~~~~~~~~~~~~~~~~~-|
G-2-2-2-2-2-2-2-2-2-2-2-2-2-2-2-2-0~~~~~~~~~~~~~~~~~-|
C-2-2-2-2-2-2-2-2-2-2-2-2-2-2-2-2-0~~~~~~~~~~~~~~~~~-|

Guitar 3
D----------------------------------------------------|
A----------------------------------------------------|
F----------------------------------------------------|
C-2-2-2-2-2-2-2-2-2-2-2-2-2-2-2-2-7~~~~~~~~~~~~~~~~~-|
G-2-2-2-2-2-2-2-2-2-2-2-2-2-2-2-2-7~~~~~~~~~~~~~~~~~-|
C-2-2-2-2-2-2-2-2-2-2-2-2-2-2-2-2-7~~~~~~~~~~~~~~~~~-|

Tab Legend
h - hammer-on
p - pull-off
pm- palm mute
/ - slide down
\ - slide up
~ - let ring
* - harmonic

There you have it once again i thank you for viewing my tab and if there is any problems 
or make your own. This is a hard tab and i just got you half way. Oh one last 
ROCK OUT!!!!





Comments


Popular Last Winter tabs & chords
Girl Next Door Bass Tabs
Standing Here Chords
Don't Forget To Write Tabs
Don't Forget To Write 1 Tabs
Hide Your Eyes Tabs
Vela To Norma Intro Tabs
Standing Here Ukulele


Song lyrics



↑ Back to top | Tablatures and chords are parodies/interpretations of the original songs. You may use it for private study, scholarship, research or language learning purposes only
© 2014 AZChords.com Contact us | Privacy policy | DMCA | Add/correct tabs | Request tabs | Top 50 tabs