» » »

Social Butterfly Tabs (ver.1)

Artists:  A B C D E F G H I J K L M N O P Q R S T U V W X Y Z # 

Social Butterfly Tabs (ver.1)

Last Tuesday
Rating:
4/5 (1 vote)

Hard to play? Try these video lessons and learn fast.
                "Social Butterfly" by Last Tuesday.
This is an awesome song from the Composition EP. Enjoy.


Standard Tuning - eBGDAE

x - palm mute

--x---
--x--- - dead note
--x---

Intro - Palm Mute.
E-------------------------------------------------------------------------|
B-------------------------------------------------------------------------|
G-------------------------------------------------------------------------|
D--6-6-6-6-6-6-6-6--------------------------------------------------------|
A--4-4-4-4-4-4-4-4--6-6-6-6-6-6-6-6--8-8-8-8-8-8-8-8--4-4-4-4-4-4-4-4-----|
E-------------------4-4-4-4-4-4-4-4--6-6-6-6-6-6-6-6--2-2-2-2-2-2-2-2-----|
   x x x x x x x x  x x x x x x x x  x x x x x x x x  x x x x x x x x

E-------------------------------------------------------------------------|
B-------------------------------------------------------------------------|
G-------------------------------------------------------------------------|
D--6-6-6-6-6-6-6-6--------------------------------------------------------|
A--4-4-4-4-4-4-4-4--6-6-6-6-6-6-6-6--4-4-4-4-4-4-4-4--x-x-x-x-x-x-x-x-----|
E-------------------4-4-4-4-4-4-4-4--2-2-2-2-2-2-2-2--x-x-x-x-x-x-x-x-----|
   x x x x x x x x  x x x x x x x x  x x x x x x x x

Electric Intro x2
E--------------------------------------------------------------------------|
B--------------------------------------------------------------------------|
G--6----6-6----6-6----6-6--------------------------------------------------|
D--6----6-6----6-6----6-6--6-6--8----8-8----8-8----8-8--6-6----------------|
A--4----4-4----4-4----4-4--6-6--8----8-8----8-8----8-8--6-6----------------|
E--------------------------4-4--6----6-6----6-6----6-6--4-4----------------|

Verse x2
E--------------------------------------------------------------------------|
B--------------------------------------------------------------------------|
G--6-----------------------------------------------------------------------|
D--6--6-6-6-6-6-6----6-----------------8-----------------4-----------------|
A--4--4-4-4-4-4-4----6--6-6-6-6-6-6----8--8-8-8-8-8-8----4--4-4-4-4-4-4----|
E--------------------4--4-4-4-4-4-4----6--6-6-6-6-6-6----2--2-2-2-2-2-2----|
      x x x x x x       x x x x x x       x x x x x x       x x x x x x

Pre-Chorus
E--------------------------------------------------------------------------|
B--------------------------------------------------------------------------|
G--6-------------------------------6---------------------------------------|
D--6------6------8------4----------6------6------4-------------------------|
A--4------6------8------4----------4------6------4--4-4-4-4-4-4-4-4--------|
E---------4------6------2-----------------4------2--2-2-2-2-2-2-2-2--------|
                                                    x x x x x x x x
Chorus
E---------------------------------------------------------|
B---------------------------------------------------------|
G---------------------------------------------------------|
D--6xx6----------------------6xx6--------------4-------4--|
A--4xx4--6xx6--8xx8--4xx4----4xx4--6xx6--4-4-4-4-4-4-4-4--|
E--------4xx4--6xx6--2xx2----------4xx4--2-2-2-2-2-2-2-2--|
                                         x x x   x x x

E------------------------------------------------------------------------|
B------------------------------------------------------------------------|
G------------------------------------------------------------------------|
D--6xx6------------------8----------6xx6--------------4-4-4-4------------|
A--4xx4--6xx6--8-8-8-8-8-8--4xx4----4xx4--6xx6--8xx8--4-4-4-4------------|
E--------4xx4--6-6-6-6-6-6--2xx2----------4xx4--6xx6--2-2-2-2------------|
               x x x x x                                      let ring
Bridge x2
E------------------------------------------------------------------------|
B------------------------------------------------------------------------|
G--6-6--------------------------------6-6--------------------------------|
D--6-6----6-6----4-4----6-6----8-8----6-6----6-6----4-4----6-6----8-8----|
A--4-4----6-6----4-4----6-6----8-8----4-4----6-6----4-4----6-6----8-8----|
E---------4-4----2-2----4-4----6-6-----------4-4----2-2----4-4----6-6----|


E-----------|
B-----------|
G-----------|
D--4--------|
A--4--------|
E--2--------|
     let ring


for suggestions.
            
Hard to play? Try these video lessons and learn fast. | Correct




comments powered by Disqus
↑ Back to top | Tablatures and chords are parodies/interpretations of the original songs. You may use it for private study, scholarship, research or language learning purposes only