>
 >
Beat Dependent

Beat Dependent Guitar Tabs

Last Tuesday - Beat Dependent chords, tabs, tablatures, lyrics

Guitar lessons | Add/correct | Request | Top 50 tabs Artists:  A B C D E F G H I J K L M N O P Q R S T U V W X Y Z 0-9

Beat Dependent Guitar Tabs – Last Tuesday

CD, Sheet music, Poster

Do you like Beat Dependent? Share with your friends now
Tabs

-------------------------------------------------------------------------------
-------------------------------------------------------------------------------

Tuning: Standard

Last Tuesday is an awesome up-and-coming band and doesnít yet have any tabs, but Iím workin on it!

Guitar 1:
intro
e|------------------------------------------------------|
B|------------------------------------------------------|
G|------------------------------------------------------| x2
D|-99999-99999---6666-66666-----------------------------|
A|-77777-77777---4444-44444-----77777777--77777777--9---|
E|--------------(second time:)--55555555--44444444--7---|
			  999	9  9999				
			  777	7 77777

verse part I
e|---------------------------------------------------------------------------|
B|---------------------------------------------------------------------------|
G|---------------------------------------------------------------------------|
D|-(pause)--99-999-----------------------------------------------------------|
A|----------77-777---99-999-99-999---77-777-77-777--77-777-------------------|
E|-------------------77-777-77-777---44-444-44-444--55-555---7-7-7-7h9p7-----|

verse part II
e|----------------------------------------------------|
B|----------------------------------------------------|
G|----------------------------------------------------|
D|---9-----------------------66666666---------666-----|
A|---7-----------9--9--------44444444--7777-7-444-9999|
E|---------------7--7------------------5555-5-----7777|

pre chorus
e|-------------------------------------------------|
B|-------------------------------------------------|
G|-------------------------------------------------|
D|-------------------99-999-999-999----------------|
A|---77-777-777-777--77-777-777-777-99-999-999-999-|
E|---55-555-555-555-----------------77-777-777-777-|

chorus part I
e|------------------------------------------------------------|
B|------------------------------------------------------------|
G|------------------------------------------------------------|
D|--99---------------------666666666666-----------------------|
A|--77-------9-77777777777-444444444444--99999999999--77-9999-|
E|-----------7-55555555555---------------77777777777--55-7777-|

chorus part II
e|---------------------------------------------|
B|---------------------------------------------|
G|---------------------------------------------|
D|-99-----------------------666----------------|
A|-77-------9-777777777777--444--999-777-777-7-|
E|----------7-555555555555-------777-555-444-5-|

verse III
e|---------------------------------------------------------------------------|
B|---------------------------------------------------------------------------|
G|---------------------------------------------------------------------------|
D|------(pause)--------------------------------------------------------------|
A|-------------------99-999-99-999---77-77---7-------------------------------|
E|-------------------77-777-77-777---44-44---5----7-7-7h9p7------------------|

acoustic part
e|---00000000000-----00000000000------0000000000----00000000000--------------|
B|---00000000000-----00000000000------0000000000----00000000000--------------|
G|---77777777777-----77777777777------7777777777----77777777777--------------|
D|---77777777777-----77777777777------7777777777----77777777777--------------|
A|-9-99999999999-----99999999999------9999999999----99999999999--------------|
E|-----------------9----------------4-------------5--------------------------|

Order:
intro
verse pt I
verse pt II
pre chorus
chorus pt I
chorus pt II
intro
verse pt III
verse pt II
pre chorus
chorus pt I
chorus pt II 
acoustic
chorus pt II

(mess around with the repetition til u figure it out)

| /  slide up
| \  slide down
| h  hammer-on
| p  pull-off
| ~  vibrato
| +  harmonic
| x  Mute note
===============================================================================





Comments


Popular Last Tuesday tabs & chords
Become What You Believe Intro Tabs
Giving Up Tabs
Its Not Too Late Intro Tabs
Social Butterfly Tabs
The Stand Tabs


Song lyrics



↑ Back to top | Tablatures and chords are parodies/interpretations of the original songs. You may use it for private study, scholarship, research or language learning purposes only
© 2014 AZChords.com Contact us | Privacy policy | DMCA | Add/correct tabs | Request tabs | Top 50 tabs