» » »

Anak Kecil Tabs (ver.1)

Artists:  A B C D E F G H I J K L M N O P Q R S T U V W X Y Z # 

Anak Kecil Tabs (ver.1)

Last Child
Rating:
0/5 (0 votes)
Tabs too difficult? Try these video lessons and learn fast.
                Song        : Anak Kecil
Album       : Grow Up
Artist      : Last Child

(kunjungi blog yoos untuk request...)


@intro
e|-------------------------------------------|
B|--7-----------8-8-------8-8-8-7------------|
G|----7-------7-----9---7---------9-7--------|
D|------7---7-------------------------7------|
A|--------------------------------------7-5--|
E|-------------------------------------------|


@intro juga
e|----------------------------------------------------|
B|----------------------------------------------------|
G|----------------------------------------------------|
D|--7-7-7-7p5--5-5-5-7p5--7-7-7-7p5--7-7-7-7-7-7-7-7--|
A|--5-5-5------5-5-5------7-7-7------5-5-5-5-5-5-5-5--|
E|-------------3-3-3------5-5-5-----------------------|

e|----------------------------------------------------|
B|----------------------------------------------------|
G|----------------------------------------------------|
D|--9-9-9-7p5--5-5-5-7p5--7-7-7-7p5--7-7-7-7-7-7-7-7--|
A|--9-9-9------5-5-5------7-7-7------5-5-5-5-5-5-5-5--|
E|--7-7-7------3-3-3------5-5-5-----------------------|


@pabila ada hal yang suci....
e|-----------------------------------------------------------|
B|--7---7---8---8---5---5---7---7---7---7---8---8---5---5----|
G|----7-------7-------6-------7-------7-------7-------6---7--|
D|-----------------------------------------------------------|
A|-----------------------------------------------------------|
E|-----------------------------------------------------------|


@solo...
e|--------------------------7-----------------|
B|---------------------7-10----8-10-7---------|
G|--7---------6------7-----------------7-9-6--|
D|----7-----9---9-7---------------------------|
A|------9-------------------------------------|
E|--------------------------------------------|

e|--------------------------7-----------------|
B|---------------------7-10----8-10-7---------|
G|--7---------6------7-----------------7-9-6--|
D|----7-----9---9-7---------------------------|
A|------9-------------------------------------|
E|--------------------------------------------|

e|---------------------------------------------10-10-10--|
B|--10-9-7-----7-----------------10-9-7------------------|
G|---------9---------7-----7h9----------9-7-6------------|
D|---------------7h9-----9-------------------------------|
A|-------------------------------------------------------|
E|-------------------------------------------------------|

e|-------------------------------------------10-10-10--|
B|--10-9-7-----7-----------------7---------------------|
G|---------9---------7-----7h9-------9---7-------------|
D|---------------7h9-----9-----------------------------|
A|-----------------------------------------------------|
E|-----------------------------------------------------|

e|---------------------------------------------10-10-10--|
B|--10-9-7-----7-----------------10-9-7------------------|
G|---------9---------7-----7h9----------9-7-6------------|
D|---------------7h9-----9-------------------------------|
A|-------------------------------------------------------|
E|-------------------------------------------------------|

e|-------------------------------------------10-10-10--|
B|--10-9-7-----7-----------------7---------------------|
G|---------9---------7-----7h9-------9---7-------------|
D|---------------7h9-----9-----------------------------|
A|-----------------------------------------------------|
E|-----------------------------------------------------|

e|-----------------------------------------|
B|---------------7----------------------7--|
G|--7-7--7--7-9----7--------7-7--7--7-9----|
D|--------------------9-7------------------|
A|-----------------------------------------|
E|-----------------------------------------|

e|-------------------------------------------|
B|---------------7----------7-7--7----7--10--|
G|--7-7--7--7-9----7----------------7--------|
D|--------------------9-7--------------------|
A|-------------------------------------------|
E|-------------------------------------------|


CHORD
=====

Intro:
D5 G5 A5 D5 B5 G5 A5 D5 2x

D5          G5
pabila ada hal yang indah
A5          D5
dari buruknya dunia ini
B5          G5
hilang semua hati gundah 
A5          D5
melihat mereka menari

D5          G5
tiada bunga yang seharum
A5          D5
wangi mungil tubuh mereka
B5          G5
disaat mereka tersenyum
A5          D5
bercahayalah dunia ini

A5          D5
tangis dari mulut mereka
G5          D5
bangkitkan semangat di hati
E5          A5        D5
alasan tuk bahagiakan mereka

A5          D5
tawa dari mulut mereka
G5          D5
mampu redam benci di hati
E5          A5        D5
alasan ciptakan damai di bumi

D5 G5 A5 D5 B5 G5 A5 D5 2x

D5          G5
pabila ada hal yang suci
A5          D5
dari kotornya dunia ini
B5          G5
jernih hati polos mereka
A5          D5
belum terjamah oleh dosa

D5          G5
tiada tari yang seindah
A5          D5
gerak lincah tubuh mereka
B5          G5
disaat mereka tertidur
A5          D5
terdengar malaikat bernyanyi

A5          D5
tangis dari mulut mereka
G5          D5
bangkitkan semangat di hati
E5          A5        D5
alasan tuk bahagiakan mereka

A5          D5
tawa dari mulut mereka
G5          D5
mampu redam benci di hati
E5          A5        D5
alasan ciptakan damai di bumi

D5 G5 A5 G5

A5          D5
tangis dari mulut mereka
G5          D5
bangkitkan semangat di hati
E5          A5        D5
alasan tuk bahagiakan mereka

A5          D5
tawa dari mulut mereka
G5          D5
mampu redam benci di hati
E5          A5        D5
alasan ciptakan damai di bumi

A5          D5
tangis dari mulut mereka
G5          D5
bangkitkan semangat di hati
E5          A5        D5
alasan tuk bahagiakan mereka

A5          D5
tawa dari mulut mereka
G5          D5
mampu redam benci di hati
E5          A5        D5
alasan ciptakan damai di bumi

D5 G5 A5 D5 B5 G5 A5 D5 2x
            
Tabs too difficult? Try these video lessons and learn fast.


comments powered by Disqus
↑ Back to top | Tablatures and chords are parodies/interpretations of the original songs. You may use it for private study, scholarship, research or language learning purposes only