» » »

Las Pastillas Del Abuelo, Que Pretendo No Saber Chords (ver.1)

Artists:  A B C D E F G H I J K L M N O P Q R S T U V W X Y Z # 

Que Pretendo No Saber Chords (ver.1)

Las Pastillas Del Abuelo Tabs
Rating:
0/5 (0 votes)
Hard to play? Try these video lessons and learn fast.
                Ésta transcripcion es una modificacion de la anterior la cual tenia algunos
errores. Está bastante bien.

Intro:


E/-----------------------------------------------------------------------|
B/-----------------------------------------------------------------------|
G/-----------------------------------------------------------------------|
D/-----------3h4-----3h4-----3h4-----3h4-----3h4-----3h4-----3h4-----3h4-|
A/-0-3-4-5-5-----5-5-----5-5-----5-5-----3-3-----3-3-----3-3-----3-3-----|
E/-----------------------------------------------------------------------|

E/-----------------------------------------------------------------|
B/-----------------------------------------------------------------|
G/-----3h4-----3h4-----3h4-----3h4---------------------------------|x2
D/-5-5-----5-5-----5-5-----5-5---------3h4-----3h4-----3h4-----3h4-|
A/---------------------------------5-5-----5-5-----5-5-----5-5-----|
E/-----------------------------------------------------------------|


D                                                    C add9
Con el mismo dedo que te toco el timbre puedo presionar tu herida.
D                                             C add9
Con la misma mano que te acaricio yo puedo meterte faca.
D                                    C add9
Con la misma que digo mamá puedo anular tú autoestima.
D                                                   C add9
Con el mismo empujón que te ayuda a crecer puedo tirarte de la hamaca.

D
Y así lastimarte,cortarte las piernas,
             C add9
llenarte de miedos,hacer que no quieras
            G                       D
ganar este juego que tanto vale la pena.

Yo puedo asfixiarte,reducirte a cero,
               C add9
hacer que no quieras sacarte el sombrero
             G                      D
ante este milagro que algunos llaman vida.

Intro una sola ves o bien:

D - C - G - D -   F

D                                                       C add9
De la misma forma que hago una revolución te hago un golpe de estado.
D                                               C add9
Del fernet puedo ser un curda feliz o ser víctima y victimario.
D                                                C add9
De la manipulación yo puedo hacer el bien pero también maldades.
D                                              C add9
De paso cañazo que no doy por darte quito posibilidades.

D
Y yo acá re puesto,explicando que es esto,
              C add9
de que los opuestos,que están dentro nuestro,
               G                           D
si bien son opuestos,también son complementarios.

Dentro mío bailan Hitler y Mahatma,
                  C add9
Buda y Zorba el griego,Mariano Grondona y el Diego,
     G                                D     F
el amor y el dinero,Dolina y el mono Mario.

G                                              F
Para hacerme responsable de mis facultades asesinas sufro y muero.
G                                                    F
Para reírme hasta el llanto cada tanto lloro hasta reírme a pleno.
G                                                   F
Para mí que menos,más,mejor,peor,muy,tan,son trampas de la mente.
G                                                 F
Para mí que clasifica lo inclasificable porque teme a la muerte.


G
Somos cielo y tierra; agua,fuego; tristeza,alegría;
     F
consuelo,franqueza; placer,agonia;
      C maj                          G
soy sueño y desvelo; quilombo y armonia.

Si no pongo el freno a mi mente no estoy el presente,
     F
mi cuerpo no siente,estoy como ausente,
   C maj                            G
casi trasparente,como quien dice demente.


A sus2                                             G
Hasta cuando sin corazón por el que diran sobre nosotros
                                   D
según mi opinión vivir bajo un pulgar
                            A sus2
no te deja ir tras algo profundo.

Antes de roscar el perdón desde la nada
              G
voy hacia el todo, del todo a la nada,
              D                           A sus2  F#
del me tomo al como y haciendo cambio el mundo.

F# maj11            A sus2
A la circunstancia la boicotea el tiempo.
E                       F# maj11
A las importancias los miedos.
                       A sus2
A las circunstancias las boicotea el tiempo.
E                        F# maj11
A las importancias los miedos.



E/------------------------------------------------------------------------|
B/------------------------------------------------------------------------|
G/------------------------------------------------------------------------|
D/-----------0h1-----0h1-----0h1-----0h1-----0h1-----0h1-----0h1-----0h1--|
A/---0-1--2-2-----2-2-----2-2-----2-2-----0-0-----0-0-----0-0-----0-0-----|
E/-2----------------------------------------------------------------------|

E/-----------------------------------------------------------------|
B/-----------------------------------------------------------------|
G/-----0h1-----0h1-----0h1-----0h1---------------------------------|x2
D/-2-2-----2-2-----2-2-----2-2---------0h1-----0h1-----0h1-----0h1-|
A/---------------------------------2-2-----2-2-----2-2-----2-2-----|
E/-----------------------------------------------------------------|

O bien con acordes: F# maj11 - A sus2 - E - (x2) - F# maj11


  C add9    C maj   A sus2  F# maj11

E --0--     --3--   --0--   --1--|
B --3--     --1--   --0--   --1--|
G --0--     --0--   --2--   --2--|
D --2--     --2--   --2--   --2--|
A --3--     --3--   --0--   --1--|
E --0--     --0--   --0--   --1--|



Por Ignacio C
            

comments powered by Disqus
↑ Back to top | Las Pastillas Del Abuelo Chords for Que Pretendo No Saber. Lyrics for acoustic guitar and electric guitar. Tablatures and chords are parodies/interpretations of the original songs. You may use it for private study, scholarship, research or language learning purposes only