» » »

La Souris Deglinguee, Partie De La Jeunesse Tabs (ver.1)

Artists:  A B C D E F G H I J K L M N O P Q R S T U V W X Y Z # 

Partie De La Jeunesse Tabs (ver.1)

La Souris Deglinguee Tabs
Rating:
0/5 (0 votes)
Partie De La Jeunesse lessons Tabs too difficult? Try these video lessons and learn fast
                Notes: 
Jouer uniquement avec des power chords.

Pour l'accord Em on peut utiliser 

     mais aussi
e|------------------|
B|------------------|
G|--------------9---|
D|-2------------9---| 
A|-2------------7---|
E|-0----------------|

voilà, le solo ne doit pas être parfait mais bon...




La Souris Déglinguée - Partie de la Jeunesse

Intro/Refrain:

e|----------------------------|--------------0-----|
B|---3--3-3-------0--0-----0--|--3--3-3-0--3-------|
G|----------2--2-------2------|--------------------|
D|----------------------------|--------------------|
A|----------------------------|--------------------|
E|----------------------------|--------------------|


--2--2-2-0--0-----2-0------|-----0-----------------|
---------------3--------3--|--0-----3--0-----------|
---------------------------|--------------2--------|
---------------------------|-----------------------|   x2
---------------------------|-----------------------|
---------------------------|-----------------------|

Pré-couplet:
                                                         
--0---------|
--2---------|
--2---------|     x4
--2---------|
--0---------| 
------------|

Couplet:

D                 G
Si tu crois qu'tu fais partie

      D               Em
D'une partie d'la jeunesse,

D                  G
Faudra vraiment qu't'en sois fier

      D              A
Et qu'tu détestes le reste.


Si y'a rien d'autre dans ta vie
Qu'une partie de ta jeunesse,
Faudra qu'elle ne meure jamais,
Y'a pas de raison qu'ça cesse.

Refrain x2

Qu'ça soit ici ou là-bas,
A l'Est comme à l'Ouest,
Ca c'est sûr tu fais partie
D'une partie d'la jeunesse.

Ta seule arme, ta seule richesse,
Ton esprit et ta force,
C'est un seul parti qui s'impose,
C'est le parti de la jeunesse.


     D       G          D         Em
e|-------------------|------------0-----|
B|---3-------0-------|--3---0--3--------|
G|-------2------2----|------------------|
D|-------------------|------------------|
A|-------------------|------------------|
E|-------------------|------------------|

  D         G              D           A
--2----0-------2-0------|-----0-----------------|
------------3--------3--|--0-----3--0-----------|
------------------------|--------------2--------|
------------------------|-----------------------|   x2
------------------------|-----------------------|
------------------------|-----------------------|


Solo:
    D                    G            D            Em
e|------------------------------------------------------------|
B|-8/10--10-10-10-10-10--12---10---8--10---13--12--10---------|
G|------------------------------------------------------------|
D|------------------------------------------------------------|
A|------------------------------------------------------------|
E|------------------------------------------------------------|

   D               G             D          A          
e|--13--------------------------------------------------------|
B|----13--12--10---8~---8- 6/8---6~--6--6-6-------------------|
G|------------------------------------------7~----------------|
D|------------------------------------------------------------|
A|------------------------------------------------------------|
E|------------------------------------------------------------|

   D            G            D              Em     
e|----5-5-----------------------------------------------------|
B|--7-----7p5----------------3--5/7--5--3--/5~----------------|
G|-------------7/\--4---4--2----------------------------------|
D|------------------------------------------------------------|
A|------------------------------------------------------------|
E|------------------------------------------------------------|

       D         G             D           A  
e|-0-0/2--2-0--0-----2-0-----------0----------------------------|
B|---------------3--------3----0-----3--0-----------------------|
G|-----------------------------------------2--------------------|
D|--------------------------------------------------------------|   
A|--------------------------------------------------------------|
E|--------------------------------------------------------------|



Si tu crois qu'tu fais partie
D'une partie d'la jeunesse,
Faudra vraiment qu't'en sois fier
Et qu'tu détestes le reste.

Si y'a rien d'autre dans ta vie
Qu'une partie de ta jeunesse,
Faudra qu'elle ne meure jamais,
Y'a pas de raison qu'ça cesse.

Refrain x2

Qu'ça soit ici ou là-bas,
A l'Est comme à l'Ouest,
Ca c'est sûr tu fais partie
D'une partie d'la jeunesse.

Ta seule arme, ta seule richesse,
Ton esprit et ta force,
C'est un seul parti qui s'impose,
C'est le parti de la jeunesse. 

Refrain x2
            

comments powered by Disqus
↑ Back to top | La Souris Deglinguee Tabs for Partie De La Jeunesse. Lyrics for acoustic guitar and electric guitar. Tablatures and chords are parodies/interpretations of the original songs. You may use it for private study, scholarship, research or language learning purposes only