» » »

La Ruda Salska, Trianon Bass tabs (ver.1)

Artists:  A B C D E F G H I J K L M N O P Q R S T U V W X Y Z # 

Trianon Bass tabs (ver.1)

La Ruda Salska Tabs
 Rating:
4/5 (4 votes)
Trianon lessons Tabs too difficult? Try these video lessons and learn fast
                La chanson est divisée en 2 parties, la 1è est plus rapide et la 2è plus calme

1è partie :

1er Riff de l'intro
G:-------------------
D:-------0------0--55
A:-----1----3-3------
E:-3-3---------------

Intro / Couplets / Refrains
G:------------------
D:-----53--0---0055-
A:----1-----3-3-----
E:3-33--------------


2è partie :
G:---|--------------2-0-|X6|-3-2-0------4-0-1--3-2-0----------
D:---|-----0----0-3-----|X6|-------1--0--------------1--0-----
A:---|---1---3----------|X6|----------------------------------
E:-3-|-3----------------|X6|--------------------------------3-


G:--------------2-0-|X7|-3-2-0----------|--------------2-0-|X2|-3-2-0------4-0-1--3-2-0----------
D:-----0----0-3-----|X7|-------1--0--0--|-----0----0-3-----|X2|-------1--0--------------1--10--0-
A:---1---3----------|X7|----------------|---1---3----------|X2|----------------------------------
E:-3----------------|X7|--------------3-|-3----------------|X2|---------------------------------3


G:--------------2-0-|X3|--------------------
D:-----0----0-3-----|X3|-----0-----0-0------
A:---1---3----------|X3|---1---3--3---------
E:-3----------------|X3|-3---------------3~-
            
Submit corrections

comments powered by Disqus
↑ Back to top | La Ruda Salska Bass for Trianon. Lyrics for acoustic guitar and electric guitar. Tablatures and chords are parodies/interpretations of the original songs. You may use it for private study, scholarship, research or language learning purposes only