» » »

Tant Dargent Dans Le Monde Bass tabs (ver.1)

Artists:  A B C D E F G H I J K L M N O P Q R S T U V W X Y Z # 

Tant Dargent Dans Le Monde Bass tabs (ver.1)

La Ruda Salska
Rating:
0/5 (0 votes)

Hard to play? Try these video lessons and learn fast.
                La Ruda Salska
Tant D'argent Dans Le Monde
Bass
By Herisong

Riff1
G:---------------------------------
D:-2-2-2-2-0-0-0-0-----------------
A:-----------------4-4-4-4-3-3-3-3-
E:---------------------------------

Riff2
G:----------------------------------0-0-------
D:---6-9-6----------------0-------------2-0---
A:-7-------(7)\\5--------2---2---3-----------3-
E:--------------------3-------3---------------

Riff3
G:----------------------------------
D:-2222222200000000-----------------
A:-----------------4444444433333333-
E:----------------------------------

Riff4
G:---------------------------------------------------
D:-2---2--2-2---0---0--0-0---------------------------
A:----------------------------------------3---3--3-3-
E:---------------------------3---3--3-3--------------

Riff5
G:----------------------------------
D:-2~~-----0~~----------------------
A:-----------------4~~-----3~~------
E:----------------------------------

Riff final
G:----------------------------------
D:-2222222200000000---------2-0-----
A:-----------------44444444-------0-
E:------------------------------3---

Structure:
Riff: x4
Riff: x6
Riff: x4
Riff: x6
Riff: x3
Riff: x2
Riff: x2
Riff: x2
Riff: x3
Riff final: x1
            
Hard to play? Try these video lessons and learn fast. | Correct




comments powered by Disqus
↑ Back to top | Tablatures and chords are parodies/interpretations of the original songs. You may use it for private study, scholarship, research or language learning purposes only