» » »

Que Le Bon L'Emporte Bass tabs (ver.1)

Artists:  A B C D E F G H I J K L M N O P Q R S T U V W X Y Z # 

Que Le Bon L'Emporte Bass tabs (ver.1)

La Ruda Salska
Rating:
0/5 (0 votes)

Hard to play? Try these video lessons and learn fast.
                Riff principal
G:--------------------------------
D:-----0--------------00----------
A:----4--420-0---0---4--420-0-024-
E:-2----------4-4-2----------4----

Couplets
G:-------------------
D:-4---4---------6-6-
A:---4---4--0--0-----
E:--------------4-4--

Pre Refrain
G:------------------|X2|
D:-4---4--------4-6-|X2|
A:---4---4-0--0-----|X2|
E:-------------4-4--|X2|

Refrain
G:-------------------|-------------------------|X2|------------------------------
D:---------------47--|-----------------------47|X2|------------------------------
A:-55--77--44--55----|55-555-77-777-44-444-55--|X2|-55-555-77-777-44-444-5-4-2-0-
E:-------------------|-------------------------|X2|------------------------------

Variation du riff principal juste avant le bridge
G:--------------------------------
D:-----0---------------00----------
A:----4--420----0-2---4--420-0-024-
E:-2----------4----2----------4----

Bridge
G:-------------------|X7|--------------------
D:---0---0-----------|X7|---0---0------------
A:--4-2-4-2--020-----|X7|--4-2-4-24-2-00-----
E:-2---2---24---4202-|X7|-2---2----------4-2-

Dernier refrain
G:-------------------|-------------------------|X7|-------------------------------
D:---------------47--|-----------------------47|X7|-------------------------------
A:-55--77--44--55----|55-555-77-777-44-444-55--|X7|-55-555-77-777-4-4-4-4-5-5-5-5-
E:-------------------|-------------------------|X7|-------------------------------
            
Hard to play? Try these video lessons and learn fast. | Correct




comments powered by Disqus
↑ Back to top | Tablatures and chords are parodies/interpretations of the original songs. You may use it for private study, scholarship, research or language learning purposes only