» » »

Orange Bass tabs (ver.2)

Artists:  A B C D E F G H I J K L M N O P Q R S T U V W X Y Z # 

Orange Bass tabs (ver.2)

La Ruda Salska
Rating:
0/5 (0 votes)

Hard to play? Try these video lessons and learn fast.
                Riff principal & Outro
G:-------------------
D:-----0000----0030--
A:-1111--------------
E:---------3333------

Pre Chorus
G:------------------
D:-----------------
A:-1-1-1-----------
E:-----------3-3-3-

Refrain & Bridge
G:-----------------0-
D:---03-303------03--
A:-11-----------1----
E:----------3323-----
            
Hard to play? Try these video lessons and learn fast. | Correct




comments powered by Disqus
↑ Back to top | Tablatures and chords are parodies/interpretations of the original songs. You may use it for private study, scholarship, research or language learning purposes only