>
 >
L'Art De La Joie

L'Art De La Joie Bass Tabs

La Ruda Salska - L'Art De La Joie chords, tabs, tablatures, lyrics

Guitar lessons | Add/correct | Request | Top 50 tabs Artists:  A B C D E F G H I J K L M N O P Q R S T U V W X Y Z 0-9

L'Art De La Joie Bass Tabs – La Ruda Salska

CD, Sheet music, Poster

Do you like L'Art De La Joie? Share with your friends now
Bass Tabs
Intro - 1e partie des Couplet
G:-0-0-0-3-3--0------------------
D:--------------3-1-1-1-3-1--1-3-
A:-------------------------------
E:-------------------------------

2è partie des Couplet
G:-000-12-10-----8-7-----12-10---------
D:-----------------------------333-0-3-
A:-----------666-----6-6---------------
E:-------------------------------------

Refrain
G:-------------11*11-------------11*11--
D:-5--588-----------8-5--588----------8-
A:-------8-6--6-------------86--6-------
E:--------------------------------------

Partie instrumentale
G:-----------------8-8-8-8-7-7-7-7---------------------------------
D:-5-5-5-5-5-5-5-5-----------------5-5-5-5-5-5-5-5-----------------
A:-------------------------------------------------6-6-6-6-5-5-5-5-
E:-----------------------------------------------------------------

G:---------------------------------|X4
D:-5-5-5-5-5-5-5-5-----------------|X4
A:-----------------6-6-6-6-5-5-5*5-|X4
E:---------------------------------|X4
(ne pas jouer après l'étoile la 4è fois)

Bridge
1è partie:
G:-000-12-10-----8-7-----12-10---------
D:-----------------------------333-0-3-
A:-----------666-----6-6---------------
E:-------------------------------------

2è partie:
G:-0-0-0-3-3--0------------------
D:--------------3-1-1-1-3-1--1-3-
A:-------------------------------
E:-------------------------------

Dernier Couplet
G:-------------7---------------5-----------3-3-------------5-5-----
D:-5-5-5-5-5-5---5-3-3-3-3-3-3---3-1-1-1-1-----1-1-3-3-3-3-----3-3-
A:-----------------------------------------------------------------
E:-----------------------------------------------------------------

G:---------7-7-------------5-5-----------3-3-------------5-5-----
D:-5-5-5-5-----5-5-3-3-3-3-----3-1-1-1-1-----1-1-3-3-3-3-----3-3-
A:---------------------------------------------------------------
E:---------------------------------------------------------------

Outro : jouer partie instrumentale X 1





Comments


Popular La Ruda Salska tabs & chords
Barton Killer Bass Tabs
Barton Killer 1 Bass Tabs
Barton Killer 2 Bass Tabs
Du Rififi Chez Les Branques Bass Tabs
Du Rififi Chez Les Branques 1 Bass Tabs
Du Rififi Chez Les Branques 2 Bass Tabs
Que Le Bon L'Emporte Bass Tabs
Selon Bass Tabs
Tant Dargent Dans Le Monde Bass Tabs
Indianapolis Tabs


Song lyrics



↑ Back to top | Tablatures and chords are parodies/interpretations of the original songs. You may use it for private study, scholarship, research or language learning purposes only
© 2014 AZChords.com Contact us | Privacy policy | DMCA | Add/correct tabs | Request tabs | Top 50 tabs