» » »

Lars Winnerback, Se Dig Om Tabs (ver.1)

Artists:  A B C D E F G H I J K L M N O P Q R S T U V W X Y Z # 

Se Dig Om Tabs (ver.1)

Lars Winnerback Tabs
 Rating:
4/5 (5 votes)
Se Dig Om lessons Tabs too difficult? Try these video lessons and learn fast
                Se dig om
Lars Winnerbäck

       Am          Am                Am          Am
 E||------------------------------|-----------------------------|
 B||---------1----------1---------|--------1----------1---------|
 G||-----2----------2-------------|----2----------2-------------|
 D||-----2-----2----2-----2-------|----2-----2----2-----2-------|
 A||---0----------0---------------|--0----------0---------------|
 E||-------0----------0-----------|------0----------0-----------|

       Am         Am                 Em          Am
 E||------------------------------|------------------------------|
 B||---------1----------1---------|--------0-----------1---------|
 G||-----2----------2-------------|----0-----------2-------------|
 D||-----2-----2----2-----2-------|----2-----2-----2-----2-------|
 A||---0----------0---------------|------2-------0---------------|
 E||-------0----------0-----------|--0---------------0-----------|
           Se dig om...     

       Am         Am                 Am          G
 E||------------------------------|------------------------------|
 B||---------1----------1---------|--------1-----------0---------|
 G||-----2----------2-------------|----2-----------0-------------|
 D||-----2-----2----2-----2-------|----2-----2-----0-----0-------|
 A||---0----------0---------------|--0---------------2-----------|
 E||-------0----------0-----------|------0-------3---------------|

       Am         Am                C            C
 E||-----------------------------|-------------------------------|
 B||---------1----------1--------|--------1------------1---------|
 G||-----2----------2------------|----0------------0-------------|
 D||-----2-----2----2------------|----2-----2------2-----2-------|
 A||---0----------0-------2------|--3---3--------3---3-----------|
 E||-------0----------0----------|-------------------------------|

       Em         Am               
 E||------------------------------|
 B||---------0----------1---------|
 G||-----0----------2-------------|
 D||-----2-----2----2-----2-------|
 A||-------2------0---------------|
 E||---0--------------0-----------|

       Am          G                 G           Am
 E||------------------------------|------------------------------|
 B||---------1----------0---------|--------0-----------1---------|
 G||-----2----------0-------------|----0-----------2-------------|
 D||-----2-----2----0-----0-------|----0-----0-----2-----2-------|
 A||---0--------------2-----------|------2-------0---------------|
 E||-------0------3---------------|--3---------------0-----------|

       Am         Em                 Em          Am
 E||------------------------------|------------------------------|
 B||---------1----------0---------|--------0-----------1---------|
 G||-----2----------0-------------|----0-----------2-------------|
 D||-----2-----2----2-----2-------|----2-----2-----2-----2-------|
 A||---0--------------2-----------|------2-------0---------------|
 E||-------0------0---------------|--0---------------0-----------|


       Am          Am                Am          Am
 E||------------------------------|-----------------------------|
 B||---------1----------1---------|--------1----------1---------|
 G||-----2----------2-------------|----2----------2-------------|
 D||-----2-----2----2-----2-------|----2-----2----2-----2-------|
 A||---0----------0---------------|--0----------0---------------|
 E||-------0----------0-----------|------0----------0-----------|
                                                    Se dig om.. (vers 2), osv osv..

Am        
se dig om 
Em            Am
det är här du bor
Am              
där hänger jackan 
G             Am 
där står dina skor
C                Em     Am 
vilka öden förde skorna hit
G              Am
nu är en liten stor
Em           Am
nu är himlen vit
            
Submit corrections

comments powered by Disqus
↑ Back to top | Lars Winnerback Tabs for Se Dig Om. Lyrics for acoustic guitar and electric guitar. Tablatures and chords are parodies/interpretations of the original songs. You may use it for private study, scholarship, research or language learning purposes only