>
 >
Balladen Om Konsekvenser

Balladen Om Konsekvenser Guitar Tabs

Lars Winnerback - Balladen Om Konsekvenser chords, tabs, tablatures, lyrics

Guitar lessons | Add/correct | Request | Top 50 tabs Artists:  A B C D E F G H I J K L M N O P Q R S T U V W X Y Z 0-9

Balladen Om Konsekvenser Guitar Tabs – Lars Winnerback

CD, Sheet music, Poster

Do you like Balladen Om Konsekvenser? Share with your friends now
Tabs
INTRO/VERSE
--------------1----------------------------------------------|-0-|
-----1--------3-------1-------------------------3--------1---|-0-|
-----2------2---2-----2--------1--------2-------0--------0---|-1-|
---2---2--0---------2---2------2--------3-----0---0----2---2-|-2-|
-0----------------0----------2---2----3---3----------3-------|-2-|
---------------------------0--------1-------3----------------|-0-|


--------------1--------------------------------------------------|
-----1--------3-------1-------------------------3--------1-------|
-----2------2---2-----2--------1--------2-------0--------0-------|
---2---2--0---------2---2------2--------3-----0---0----2---2-----|
-0----------------0----------2---2----3---3----------3-----------|
---------------------------0--------1-------3--------------------|


-----------------------0--|
------1-----1-----1----0--|
------0-----0-----0----1--|
--0/2---0/2-----2---2--2--|
--------------3--------2--|
-----------------------0--|


PRE CHORUS
--------------------------------------------------------------------|
----------------------1-------1-------------------------1-------1---|
-----1-------1--------2-------2--------1-------1--------2-------2---|
-----2-------2------2---2---2---2------2-------2------2---2---2---2-|
---2---2---2---2--0-------0----------2---2---2---2--0-------0-------|
-0-------0-------------------------0-------0------------------------|


---------------------------------------------------------------------|
-----0--------------1---0--------------------------------------------|
-----2-------1------2---0-----2-------2--------2--------0--------1---|
---1---1-----2----------------3-------3--------3--------0--------2---|
-2---------2---2--0---------3---3---3---3----3---3----2---2----2---2-|
---------0------------3---1-------1--------1--------3--------0-------|

                                          |2nd time|
-------------------------------------------------------0--|-3-|
-----1-------------------------1------1-----1-----1----0--|-3-|
-----2-------2--------0--------0------0-----0-----0----1--|-0-|
---2---2-----3--------0------2---2-0/2---0/2----2---2--2--|-0-|
-0---------3---3----2---2--3------------------3--------2--|-2-|
---------1--------3------------------------------------0--|-3-|


CHORUS
-----------------------------------------------------------------|
-----1-------3---------------1--------1-------3--------------1---|
-----0-------0-------2-------0--------0-------0-------2------0---|
---2---2---0---0-----3-----2---2----2---2---0---0-----3----2---2-|
-3-----------------3---3-3--------3-----------------3--3-3-------|
---------3-------1------------------------3-------1--------------|


---------------------------------------------------------|
-----1-------3---------------1-------1-------3-----------|
-----0-------0-------2-------0-------0-------0-------2---|
---2---2---0---0-----3-----2---2---2---2---0---0-----3---|
-3-----------------3---3-3-------3-----------------3---3-|
---------3-------1-----------------------3-------1-------|


------------------------------------0-|
----3-------1-------1----1-----1----0-|
----0-------0-------0----0-----0----1-|
--0---0---2---2-0/2---0/2----2---2--2-|
--------3------------------3--------2-|
-3----------------------------------0-|


this is all you play just listen what you play when.

LYRICS

[intro/verse]
På en kvinno anstalt är det fuktigt och kallt för en dam som avtjänar sitt straff
För dom år som har gått en serie grova brott och konsekvenser avsin fysiska kraft

[pre chorus]
Förargelse väckande beteenden en skurk bakom oskulds fulla leenden
En flicka så grann dömd för våld mot tjänste man en sammling djursom tycks va illegal
samt ett misstänkt stor kapital

[intro/verse]
Hon gråter varje kväll instängd i en cell och hennes röda flätor börjar färgas grå
Hon var elva år blott när hon begick sina brott och nu ska honsnart fylla femtiotvå

[pre chorus]
Ah vårdslösa beteenden straffar sig självt i alla avseenden en flicka så from nu bakom 
och bom
och tommy och anikas goda hjälpsammhet har klassats som medskyldighet

[chorus]
Att flickan är skyldig kan man alldrig ändra på
För lag är lag det kan man alldrig ändra på
Och brott är ju brott det kan man alldrig ändra på
Men flickan, har drömmar, det kan man ändra på

[intro/verse]
På en parkbänk i stan full som själve fan där sitter en man och tar ett järn
Han är ensam för sin stank och är utbränd och pank och han fick pruta för en folk öl i afärrn

[pre chorus]
När han var lite så rymde han från barnhemmet och stack ut med nått fyllo från A-laget
Han verkade så snäll fast han var full och kriminell och pojken får nu leva på vatten 
bröd o Paradis Oskar är död, faktiskt

[chorus]
Hans eget fel det kan man alldrig ändra på
För brott är brott det kan man alldrig ändra på
å paragrafer kan man alldrig ändra på
Men pojken har drömmar, det kan man ändra på

[intro/verse]
O in en dyster sal på ett kvinnohospital där ligger en kvinna på en bår
Hon har just fått sin tablett för sitt märkliga sätt att börja skrika så fort det blir vår

[pre chorus]
Hallucinationer i forntiden hon tror hon har sett fåglar med ansikten
o hennes ende vän får hon aldrig se igen för han trotsade förbuden och sin egen 
och han föll ner i ett helvetes gap

[chorus]
Att flickan är galen det kan man alldrig ändra på
För psykoanalyser kan man alldrig ändra på
O behandlings sätt kan man alldrig ändra på
Men flickan hade drömmar och det kunde man visst ändra på

[intro/verse]
I en fotölj på tv tre sitter en självgod conferencié och indoktrinerar våran smak
Med ett hjärta av sten och en järn klo ger han sken av att va en herre som kan ta sig 
bak

[pre chorus]
Han vill så gärna styra vårt beteende med sin höga position och höga anseende
Han vill döda våra kval med fräna och skit moral ja riddar Kato suddar ut vartenda spår 
vilsenhet
tills vi bor i varsitt tvättmedelspaket

[chorus]
Att Kato är galen det kan man alldrig ändra på
Hans mamma var en sten det kan du slå dig i backen på
O Kato är hysterisk det kan man alldrig ändra på
Men att Kato har makten ja det kan vi ta mig fan ändra på

im not shore about the lyrics but thats how you play the song.





Comments


Popular Lars Winnerback tabs & chords
Att Fanga En Fjaril Chords
Elegi Chords
Fru Hjrter Dam Chords
Jag Fattar Ingenting Chords
Om Du Lamnade Mig Nu 2 Chords
Se Dig Om Tabs
Aldrig Riktigt Slut Ukulele
At Samma Hall Ukulele
Timglas Ukulele
Varning For Ras Ukulele


Song lyrics



↑ Back to top | Tablatures and chords are parodies/interpretations of the original songs. You may use it for private study, scholarship, research or language learning purposes only
© 2014 AZChords.com Contact us | Privacy policy | DMCA | Add/correct tabs | Request tabs | Top 50 tabs