» » »

Lars Frederiksen And The Bastards, Vietnam Bass tabs (ver.1)

Artists:  A B C D E F G H I J K L M N O P Q R S T U V W X Y Z # 

Vietnam Bass tabs (ver.1)

Lars Frederiksen And The Bastards Tabs
 Rating:
4/5 (4 votes)
Vietnam lessons Tabs too difficult? Try these video lessons and learn fast
                                  Vietnam - Lars Frederiksen & The Bastards
-------------------------------------------------------------------------------------------------|


Tuning: standard

this is my first tab but it is a generally simple song so if i ain't right then i am a dumbass.
check the song for timing.

Intro/Bridge (hold notes)     x1
G|---------------------------------------------------------------------------|
D|---------------------------------------------------------------------------|
A|------------------------------------3--------------------------------------|
E|5-------------5-------------5----------------------------------------------|


Verse x8
G|---------------------------------------------------------------------------|
D|---------------------------------------------------------------------------|
A|5---------------3----------------------------------------------------------|
E|--------3---------------1--------------------------------------------------|

Chorus x2
G|---------------------------------------------------------------------------|
D|-------------------------------------3-2-0---3-----------------------------|
A|5555555------------33333333---5555-----------------------------------------|
E|---------11111111----------------------------------------------------------|

bridge x1
verse  x8
chorus x2
bridge x1
verse  x4

riff 2
this is a slight variation of the chorus, this part goes along with the 2nd part of the 
(the repetitive bit that goes for over 2 minutes)
the main thing is the timing on the last bit, its slower
G|----------------------------------------------------------------------------|
D|-------------------------------0--2----2----0-------------------------------|
A|5555555------------33333333----------------------4--------------------------|
E|---------11111111-----------------------------------------------------------|


this riff goes for the whole song


thats pretty much the whole song
hope it was ok

cheers
bernie
            
Submit corrections

comments powered by Disqus
↑ Back to top | Lars Frederiksen And The Bastards Bass for Vietnam. Lyrics for acoustic guitar and electric guitar. Tablatures and chords are parodies/interpretations of the original songs. You may use it for private study, scholarship, research or language learning purposes only