» » »

Lars Frederiksen And The Bastards, Switchblade Tabs (ver.1)

Artists:  A B C D E F G H I J K L M N O P Q R S T U V W X Y Z # 

Switchblade Tabs (ver.1)

Lars Frederiksen And The Bastards Tabs
 Rating:
4.5/5 (8 votes)
Switchblade lessons Tabs too difficult? Try these video lessons and learn fast
1
                -------------------------------------------------------------------------------
                             Switchblade - Lars Frederiksen & The Bastards
-------------------------------------------------------------------------------

Tuning:standard (E)

Intro (1 guitar)                         4x 
e|----------------------------------------|----------------------------------|
B|----------------------------------------|----------------------------------|
G|----------------------------------------|----------------------------------|
D|----7-7-7-7--5-5-5-5--7-7-7-7--9-9-9-9--|----------------------------------|
A|----7-7-7-7--5-5-5-5--5-5-5-5--7-7-7-7--|----------------------------------|
E|----------------------------------------|----------------------------------|

Chorus  
1st guitar- powerchords
2nd guitar- barré chords (in brackets); same Rhythm like 1st guitar.
e|-(5)------(3)------(5)------(7)------(5)---------------(5)------(0)--------|
B|-(5)------(3)------(7)------(9)------(5)---------------(7)------(0)--------|
G|-(6)------(4)-------7-7-7-7--9-9-9-9-(6)----------------7-7-7-7-(1)--------|
D|--7-7-7-7--5-5-5-5--7-7-7-7--9-9-9-9--7-7-7-7--5-5-5-5--7-7-7-7--2-2-2-2---|
A|--7-7-7-7--5-5-5-5--5-5-5-5--7-7-7-7--7-7-7-7--5-5-5-5--5-5-5-5--2-2-2-2---|
E|--5-5-5-5--3-3-3-3--------------------5-5-5-5--3-3-3-3-----------0-0-0-0---|

Verse
e|---------------------------------------------------------------------------|
B|---------------------------------------------------------------------------|
G|--------------------7-7-7-7--9-9-9-9--------------------7-7-7-7------------|
D|--7-7-7-7--5-5-5-5--7-7-7-7--9-9-9-9--7-7-7-7--5-5-5-5--7-7-7-7--2-2-2-2---|
A|--7-7-7-7--5-5-5-5--5-5-5-5--7-7-7-7--7-7-7-7--5-5-5-5--5-5-5-5--2-2-2-2---|
E|--5-5-5-5--3-3-3-3--------------------5-5-5-5--3-3-3-3-----------0-0-0-0---|
    . . . .  . . . .  . . . .  . . . .  . . . .  . . . .  . . . .  . . . .

Solo Backing

    1^3^5^7^  1^3^5^7^  1^3^5^7^  1^3^5^7^  1+2             part 3
e|--------------------------------------------|------------------------------|
B|--------------------------------------------|------------------------------|
G|--7-----------------------------------------|-7-----7----------------------|
D|--7---------7---------5---------5--2--------|-7--7--7--5-------------------|
A|--5---------7---------5---------5--2--------|-5--7--5--5-------------------|
E|------------5---------3---------3--0--------|----5-----3---0-0-0-0-0-0-0---|
                                                
           full                               
e|-----------^---------------------------------------------------------------|
B|---------------------------------------------------------------------------|
G|--------5-7--------9---9--\\-5---------------------------------------------|
D|--7-7-7--------------------------------------------------------------------|
A|---------------------------------------------------------------------------|
E|---------------------------------------------------------------------------|

solo part 2
e|----------^----^--^--------------------------------------------------------|
B|---------------------------------------------------------------------------|
G|--------5-7----7--7-----9---9--\\-5----------------------------------------|
D|--7-7-7------------------------------------7-5-7-5-------------------------|
A|---------------------------------------------------------------------------|
E|---------------------------------------------------------------------------|

solo part 3
e|----------^------------^-------+---+--+--+--+------------------------------|
B|--------5-7----------5-7-------9-9-9-9-9-9-9-9-----------------------------|
G|--7---7--------7-7-7-------------------------------------------------------|
D|---------------------------------------------------------------------------|
A|---------------------------------------------------------------------------|
E|---------------------------------------------------------------------------|
    C       G    C       G       E


| /  slide up
| \  slide down
| h  hammer-on
| p  pull-off
| ~  vibrato
| +  harmonic
| x  Mute note
==============================================================================
            
Submit corrections

comments powered by Disqus
↑ Back to top | Lars Frederiksen And The Bastards Tabs for Switchblade. Lyrics for acoustic guitar and electric guitar. 1 Tablatures and chords are parodies/interpretations of the original songs. You may use it for private study, scholarship, research or language learning purposes only