» » »

Spell Correctly Bass tabs (ver.1)

Artists:  A B C D E F G H I J K L M N O P Q R S T U V W X Y Z # 

Spell Correctly Bass tabs (ver.1)

Lars Frederiksen And The Bastards
Rating:
0/5 (0 votes)

Hard to play? Try these video lessons and learn fast.
                Main riff played through most of the song
G|---------------------------------------  x4
D|---------------------------------------
A|----------3333---------------5555------
E|-33333333------3333-00000000------3333-

Other Riff
G|----------5-5---------------7-7----- x2
D|-5-5-5-5------5-5--2-2-2-2------5-5-
A|------------------------------------
E|------------------------------------
Main riff
G|--------------------------------------- x4
D|---------------------------------------
A|----------3333---------------5555------
E|-33333333------3333-00000000------3333-

Other Riff
G|----------5-5---------------7-7----- x2
D|-5-5-5-5------5-5--2-2-2-2------5-5-
A|------------------------------------
E|------------------------------------

Main riff
G|---------------------------------------  x4
D|---------------------------------------
A|----------3333---------------5555------
E|-33333333------3333-00000000------3333-

Other Riff
G|----------5-5---------------7-7----- x2
D|-5-5-5-5------5-5--2-2-2-2------5-5-
A|------------------------------------
E|------------------------------------

Main riff
G|---------------------------------------  x4
D|---------------------------------------
A|----------3333---------------5555------
E|-33333333------3333-00000000------3333-

Bridge
G|------------------------------------ x2
D|------------------------------------
A|--------------------------5555------
E|-3----pause------00000000------3333-

Main riff
G|---------------------------------------  x4
D|---------------------------------------
A|----------3333---------------5555------
E|-33333333------3333-00000000------3333-


ending
G|-----------------------------------|
D|-----------------------------------|
A|-3*--------------5*----------------|
E|---------0*--------------------3*--|
            
Hard to play? Try these video lessons and learn fast. | Correct




comments powered by Disqus
↑ Back to top | Tablatures and chords are parodies/interpretations of the original songs. You may use it for private study, scholarship, research or language learning purposes only