» » »

Skins Punx And Drunx Bass tabs (ver.1)

Artists:  A B C D E F G H I J K L M N O P Q R S T U V W X Y Z # 

Skins Punx And Drunx Bass tabs (ver.1)

Lars Frederiksen And The Bastards
Rating:
0/5 (0 votes)

Hard to play? Try these video lessons and learn fast.
                LARS FREDERIKSEN & THE BASTARDS - SKINS, PUNX & DRUNX
THE VIKING: 2004
TUNING: STANDARD E.A.D.G


INTRO PT 1: FOLLOW DRUMS

G:|----------------------|
D:|----------------------|
A:|-------------3-3-6666-|
E:|5--------5-5----------|

INTRO PT 2: X2

G:|------------------------------------|
D:|------------------------------------|
A:|------------------3-333333-6-666666-|
E:|5-555555-5-555555-------------------|

VERSE: X4

G:|------------------------------------|
D:|------------------------------------|
A:|------------------3-333333-6-666666-|
E:|5-555555-5-555555-------------------|

CHORUS: X3

G:|------------------------------------|
D:|------------------------------------|
A:|------------------5-555555----------|
E:|3-333333-3-333333----------5-555555-|

4TH TIME ON CHORUS DO THIS

G:|----------------------------------|
D:|----------------------------------|
A:|------------------5-6-5-6-5-6-5-6-|
E:|3-333333-3-333333-----------------|


VERSE: X4

G:|------------------------------------|
D:|------------------------------------|
A:|------------------3-333333-6-666666-|
E:|5-555555-5-555555-------------------|


CHORUS: X3

G:|------------------------------------|
D:|------------------------------------|
A:|------------------5-555555----------|
E:|3-333333-3-333333----------5-555555-|

4TH TIME ON CHORUS DO THIS

G:|----------------------------------|
D:|----------------------------------|
A:|------------------5-6-5-6-5-6-5-6-|
E:|3-333333-3-333333-----------------|

GAP:

G:|----------------------|
D:|----------------------|
A:|-------------3-3-6666-|
E:|5--------5-5----------|

ENDING: X2

G:|------------------------------------|
D:|------------------------------------|
A:|------------------3-333333-6-666666-|
E:|5-555555-5-555555-------------------|

END ON 

G:|--|
D:|--|
A:|--|
E:|5-|

THATS IT. EASY SONG BUT A FAST ONE TOO.

RED ARMY PUNX
            
Hard to play? Try these video lessons and learn fast. | Correct




comments powered by Disqus
↑ Back to top | Tablatures and chords are parodies/interpretations of the original songs. You may use it for private study, scholarship, research or language learning purposes only