» » »

Lars Frederiksen And The Bastards, Six Foot Five Bass tabs (ver.1)

Artists:  A B C D E F G H I J K L M N O P Q R S T U V W X Y Z # 

Six Foot Five Bass tabs (ver.1)

Lars Frederiksen And The Bastards Tabs
Rating:
0/5 (0 votes)
Six Foot Five lessons Tabs too difficult? Try these video lessons and learn fast
                LARS FREDERIKSEN & THE BASTARDS - SIX FOOT FIVE
LARS FREDERIKSEN & THE BASTARDS: 2001
TUNING: STANDARD E.A.D.G


INTRO:

G:|---------------------------------|
D:|---------------------------------|
A:|---------------------------------|
E:|55555555555555555555555555555555-|


VERSE: X 2

G:|-------447744---------------------------447744--------------------|
D:|---4477------774--------225522------4477------774--------447744---|
A:|5-5-----------------2255------5525-5-----------------4477------774|
E:|-----------------3-3------------------------------5-5-------------|

G:|-------447744-------------------------------------------447744----|
D:|---4477------774--------225522----------------------4477------7744|
A:|5-5-----------------2255------552---44774---225525-5--------------|
E:|-----------------3-3-------------5-5-----3-3----------------------|


CHORUS: 

PART 1 X 2
G:|---------------------------------|
D:|---------------------------------|
A:|-----------------5555555555555555|
E:|55555555555553-------------------|

PART 2 X 2
G:|---------------------------------|
D:|---------------------------------|
A:|---------------------------------|
E:|3--3333333333333-5--5555555555555|


BRIDGE: PART 1 X 2

G:|-------447744---------------------------447744--------------------|
D:|---4477------774--------225522------4477------774--------447744---|
A:|5-5-----------------2255------5525-5-----------------4477------774|
E:|-----------------3-3------------------------------5-5-------------|

G:|-------447744-------------------------------------------447744----|
D:|---4477------774--------225522----------------------4477------7744|
A:|5-5-----------------2255------552---44774---225525-5--------------|
E:|-----------------3-3-------------5-5-----3-3----------------------|

BRIDGE: PART 2

G:|-------------------------------------------------------------------------------|
D:|-------------------------------------------------------------------------------|
A:|5-----------------5-----------------5--------------------------5555555555555555|
E:|---------3-----------------5-----------------3--------5----3-------------------|


CHORUS: 

PART 1 X 2
G:|---------------------------------|
D:|---------------------------------|
A:|-----------------5555555555555555|
E:|55555555555553-------------------|

PART 2 X 2
G:|---------------------------------|
D:|---------------------------------|
A:|---------------------------------|
E:|3--3333333333333-5--5555555555555|


ENDIND:

G:|-------447744---------------------------447744--------------------|
D:|---4477------774--------225522------4477------774--------447744---|
A:|5-5-----------------2255------5525-5-----------------4477------774|
E:|-----------------3-3------------------------------5-5-------------|

G:|-------447744-----------------------------------------------------|
D:|---4477------774--------225522------------------------------------|
A:|5-5-----------------2255------552------------------55555555------5|
E:|-----------------3-3-------------5--------3-----------------------|


THATS IT. A BRILLIANT SONG, FAST AND EASY. CHEERS!!!
            
Submit corrections

comments powered by Disqus
↑ Back to top | Lars Frederiksen And The Bastards Bass for Six Foot Five. Lyrics for acoustic guitar and electric guitar. Tablatures and chords are parodies/interpretations of the original songs. You may use it for private study, scholarship, research or language learning purposes only