» » »

Leavin' Here Bass tabs (ver.1)

Artists:  A B C D E F G H I J K L M N O P Q R S T U V W X Y Z # 

Leavin' Here Bass tabs (ver.1)

Lars Frederiksen And The Bastards
Rating:
0/5 (0 votes)

Tabs too difficult? Try these video lessons and learn fast.
                Verse
G|---------------------|
D|---------------------|
A|----------3-5-3------|
E|--5-----5-------5----|

Chorus      
G|-----------------------|
D|-----------------------|
A|----55---55---55-------|
E|--55---55---55---2345--|


Bass Solo at the end
G|-------------------------|---------------------------|
D|-------------------------|---------------------------|
A|-----3-5-7-5-3----3-5-3--|---------------------------|
E|---5------------5--------|---5-5-5-5-5-4-2-1-3-3-1---|
            
Tabs too difficult? Try these video lessons and learn fast.


comments powered by Disqus
↑ Back to top | Tablatures and chords are parodies/interpretations of the original songs. You may use it for private study, scholarship, research or language learning purposes only