» » »

Lars Frederiksen And The Bastards, Fight Bass tabs (ver.1)

Artists:  A B C D E F G H I J K L M N O P Q R S T U V W X Y Z # 

Fight Bass tabs (ver.1)

Lars Frederiksen And The Bastards Tabs
 Rating:
4/5 (4 votes)
Fight lessons Tabs too difficult? Try these video lessons and learn fast
                LARS FREDERIKSEN & THE BASTARDS - FIGHT
THE VIKING: 2004
TUNING: STANDARD E.A.D.G


INTRO: X4

G:|----------------|
D:|--------9-77777-|
A:|9-9-7-7---------|
E:|----------------|

VERSE: X4

G:|----------------|
D:|--------9-77777-|
A:|9-9-7-7---------|
E:|----------------|

CHORUS: X2

G:|-----------------------------------------------------------------------|
D:|------------------------------------9-999999-9-999999-7-777777-6-6-5-5-|
A:|9-999999-9-999999-7-777777-7-777777------------------------------------|
E:|-----------------------------------------------------------------------|

VERSE: X4

G:|----------------|
D:|--------9-77777-|
A:|9-9-7-7---------|
E:|----------------|

CHORUS: X2

G:|-----------------------------------------------------------------------|
D:|------------------------------------9-999999-9-999999-7-777777-6-6-5-5-|
A:|9-999999-9-999999-7-777777-7-777777------------------------------------|
E:|-----------------------------------------------------------------------|

SOLO:

DO THIS X4
G:|----------------|
D:|--------9-77777-|
A:|9-9-7-7---------|
E:|----------------|

THEN AFTER 4 TIMES DO THIS X2
G:|-----------------------------------------------------------------------|
D:|------------------------------------9-999999-9-999999-7-777777-6-6-5-5-|
A:|9-999999-9-999999-7-777777-7-777777------------------------------------|
E:|-----------------------------------------------------------------------|

ENDING: X3

G:|----------------|
D:|--------9-77777-|
A:|9-9-7-7---------|
E:|----------------|

END ON

G:|--|
D:|--|
A:|9-|
E:|--|

THATS IT. A VERY EASY SONG, ITS JUST THE PICKING IN THE SONG WHICH IS THE HARD PART, BUT 
EASY IF YOU LISTEN. CHEERS. "ALL I WANNA DO IS FIGHT"

RED ARMY PUNX
            
Submit corrections

comments powered by Disqus
↑ Back to top | Lars Frederiksen And The Bastards Bass for Fight. Lyrics for acoustic guitar and electric guitar. Tablatures and chords are parodies/interpretations of the original songs. You may use it for private study, scholarship, research or language learning purposes only