» » »

Lars Frederiksen And The Bastards, Bastards Bass tabs (ver.1)

Artists:  A B C D E F G H I J K L M N O P Q R S T U V W X Y Z # 

Bastards Bass tabs (ver.1)

Lars Frederiksen And The Bastards Tabs
 Rating:
4/5 (4 votes)
Bastards lessons Tabs too difficult? Try these video lessons and learn fast
                LARS FREDERIKSEN & THE BASTARDS - BASTARDS
THE VIKING: 2004
TUNING: STANDARD E.A.D.G


INTRO:

G:|------------------|
D:|------------------|
A:|------------------|
E:|55555555-----3333-|


VERSE: X2

    REPEAT THIS X3    4TH TIME PLAY THIS
G:|------------------|------------------|
D:|------------------|------------------|
A:|5--55555----------|3--33333----------|
E:|---------3--33333-|---------3--33333-|


CHORUS:

G:|----------------------------------|
D:|----------------------------------|
A:|----------------------------------|
E:|1--1111111111111-5--5555555555555-|


VERSE: X2

    REPEAT THIS X3    4TH TIME PLAY THIS
G:|------------------|------------------|
D:|------------------|------------------|
A:|5--55555----------|3--33333----------|
E:|---------3--33333-|---------3--33333-|


CHORUS:

G:|----------------------------------|
D:|----------------------------------|
A:|----------------------------------|
E:|1--1111111111111-5--5555555555555-|

GUITAR SOLO: PLAY VERSE RIFF X1

  REPEAT THIS X3      4TH TIME PLAY THIS
G:|------------------|------------------|
D:|------------------|------------------|
A:|5--55555----------|3--33333----------|
E:|---------3--33333-|---------3--33333-|

BRIDGE: X1

G:|-----------------------------------------------------------------------|
D:|-----------------------------------------------------------------------|
A:|555---------------555--------------555---------------333---------------|
E:|---------333---------------333--------------333---------------33333333-|

CHORUS: 
1ST TIME DO THIS                      2ND TIME ROUND DO THIS
G:|----------------------------------|----------------------------------|
D:|----------------------------------|----------------------------------|
A:|----------------------------------|----------------------------------|
E:|1--1111111111111-5--5555555555555-|1--1111111111111-5----------------|

ENDING X2

    REPEAT THIS X3    4TH TIME PLAY THIS
G:|------------------|------------------|
D:|------------------|------------------|
A:|5--55555----------|3--33333----------|
E:|---------3--33333-|---------3--33333-|

END ON

G:|--|
D:|--|
A:|5-|
E:|--|

THATS THE THAT, EASY SONG, SHOULD HAVE NO TROUBLE.

RED ARMY PUNX
            
Submit corrections

comments powered by Disqus
↑ Back to top | Lars Frederiksen And The Bastards Bass for Bastards. Lyrics for acoustic guitar and electric guitar. Tablatures and chords are parodies/interpretations of the original songs. You may use it for private study, scholarship, research or language learning purposes only