» » »

Lars Frederiksen And The Bastards, 1% Bass tabs (ver.1)

Artists:  A B C D E F G H I J K L M N O P Q R S T U V W X Y Z # 
Rating:
0/5 (0 votes)
1% lessons Tabs too difficult? Try these video lessons and learn fast
                
PART1
G----------------------------------------I
D-----------0000---------------0000------I
A------2222------00-------2222---------0-I
E-0000-------------3-0000-----------33---I

PART2
G-------------------------0--2-0-----------------------------I
D-8888-8888-8888-8888-04-0--0----4--2--3--5-3-2--1--2--4-2-1-I
A----------------------------------3--3--3------2--2--2------I
E------------------------------------------------------------I

ORDER:
PART1 6X
PART2 2X
PART1 4X
PART2 2X
PART1 2X
PART2 5X
PART1 1X
            

comments powered by Disqus
↑ Back to top | Lars Frederiksen And The Bastards Bass for 1%. Lyrics for acoustic guitar and electric guitar. Tablatures and chords are parodies/interpretations of the original songs. You may use it for private study, scholarship, research or language learning purposes only