» » »

Lars Frederiksen, Dead American Tabs (ver.1)

Artists:  A B C D E F G H I J K L M N O P Q R S T U V W X Y Z # 

Dead American Tabs (ver.1)

Lars Frederiksen Tabs
Rating:
0/5 (0 votes)
Dead American lessons Tabs too difficult? Try these video lessons and learn fast
                This song is 100% right. Except maybe the chorus. The chorus is pretty distorted
and there is yelling, so if you think its wrong just mess around with it.

Intro X2
e----------------------------------------
B----------------------------------------
G-------------8-8---------7-7------------
D---5-5--8-8--8-8--10-10--5-7------------
A---5-5--8-8--6-6--10-10--5-5------------
E---3-3--6-6--------8--8-----------------

Verse X4
e----------------------------------------
B----------------------------------------
G---------------8888--------77-----------
D---5555--8888--8888--1010--77-----------
A---5555--8888--6666--1010--55-----------
E---3333--6666---------8-8---------------

Chorus X4
e----------------------------------------
B----------------------------------------
G----------------------------------------
D---8888--5555--33333333-----------------
A---8888--5555--33333333-----------------
E---6666--3333--11111111-----------------

Repeat Intro X2

Repeat Verse X4

Repeat Chorus till end.
            
Submit corrections

comments powered by Disqus
↑ Back to top | Lars Frederiksen Tabs for Dead American. Lyrics for acoustic guitar and electric guitar. Tablatures and chords are parodies/interpretations of the original songs. You may use it for private study, scholarship, research or language learning purposes only