» » »

Larry Norman, The Outlaw Tabs (ver.1)

Artists:  A B C D E F G H I J K L M N O P Q R S T U V W X Y Z # 

The Outlaw Tabs (ver.1)

Larry Norman Tabs
 Rating:
4/5 (4 votes)
The Outlaw lessons Tabs too difficult? Try these video lessons and learn fast
1
                ----------------------------------------------------------------------------
----------------------------------------------------------------------------

Tuning: EADGBE - Standard

This is my first tab, but i think I got it right, it's very different to the others that 
on the net, but it works well...enjoy

Intro:
e|-------3---------3---------3--------3---------3---------3----------3-----|
B|--------3---------3---------3--------3---------3---------3-----(3)--3----|
G|-----------------------(0)--------------------------(0)------0-----------|
D|-------------(0)-----0----------(0)------(2)------2----------------------|
A|---(2)-----2------------------2--------3---------------------------------|
E|-3-----------------------------------------------------------------------|

Verse 1:
e|-------3---------3----------3-----------3---------3-----------3----------|
B|--------3---------3----------3-----------3---------3------(3)--3---------|
G|------------------------(0)-------------------(0)-------0----------------|
D|-------------(0)------0-------------(2)-----2----------------------------|
A|---(2)-----2----------------------3--------------------------------------|
E|-3-----------------------------------------------------------------------|
  Some  say  he  was  an  outlaw,  that  he  roamed  across  the  land,
e|----------2----------2------------2----------2--------3---------3--------|
B|-----------3----------3------(3)---3----------3--------3---------3-------|
G|-----------------(2)-------2-------------(2)----------------(0)----------|
D|-----(0)-------0-----------------------0-----------(2)----2--------------|
A|--0----------------------------------------------3------------------0----|
E|----------------------------------------------------------------------3--|
  With  a  band  of  unschooled  ruffians  and  a  few  old  fisherman,
e|-------3---------3----------3-----------3---------3-----------3----------|
B|--------3---------3----------3-----------3---------3------(3)--3---------|
G|------------------------(0)-------------------(0)-------0----------------|
D|-------------(0)------0-------------(2)-----2----------------------------|
A|---(2)-----2----------------------3--------------------------------------|
E|-3-----------------------------------------------------------------------|
  No-one  knew  just  where  he  came  from,  or  exactly  what  he'd  done,
e|----------2----------2------------2----------2--------3---------3--------|
B|-----------3----------3------(3)---3----------3--------3---------3-------|
G|-----------------(2)-------2-------------(2)----------------(0)----------|
D|-----(0)-------0-----------------------0-----------(2)----2--------------|
A|--0----------------------------------------------3------------------0----|
E|----------------------------------------------------------------------3--|
But  they  said  it  must  be  something  bad  that  kept  him  on  the  run

Break:
e|------------------------------------------------------------------0------|
B|-----8-----8--------7----7------5-----5------3----3------2----2----2-----|
G|------0-----0--------0----0------0-----0------0----0------0----0----0----|
D|---------------------------------------------------------------------0---|
A|--7-----7--------5-----5------3-----3------2----2------1----1---------1--|
E|-------------------------------------------------------------------------|

Verse 2:
e|-------3---------3----------3-----------3---------3-----------3----------|
B|--------3---------3----------3-----------3---------3------(3)--3---------|
G|------------------------(0)-------------------(0)-------0----------------|
D|-------------(0)------0-------------(2)-----2----------------------------|
A|---(2)-----2----------------------3--------------------------------------|
E|-3-----------------------------------------------------------------------|
  Some   say   he   was   a   poet,   that   he'd   stand   upon   a   hill
e|----------2----------2------------2----------2--------3---------3--------|
B|-----------3----------3------(3)---3----------3--------3---------3-------|
G|-----------------(2)-------2-------------(2)----------------(0)----------|
D|-----(0)-------0-----------------------0-----------(2)----2--------------|
A|--0----------------------------------------------3------------------0----|
E|----------------------------------------------------------------------3--|
  That his voice could calm an angry crowd and make the waves stand still,
e|-------3---------3----------3-----------3---------3-----------3----------|
B|--------3---------3----------3-----------3---------3------(3)--3---------|
G|------------------------(0)-------------------(0)-------0----------------|
D|-------------(0)------0-------------(2)-----2----------------------------|
A|---(2)-----2----------------------3--------------------------------------|
E|-3-----------------------------------------------------------------------|
  That   he   spoke   in   many   parables   that   few   could   understand
e|----------2----------2------------2----------2--------3---------3--------|
B|-----------3----------3------(3)---3----------3--------3---------3-------|
G|-----------------(2)-------2-------------(2)----------------(0)----------|
D|-----(0)-------0-----------------------0-----------(2)----2--------------|
A|--0----------------------------------------------3------------------0----|
E|----------------------------------------------------------------------3--|
  But  the  people  sat  for  hours  just  to  listen  to  that  man

Break:
e|------------------------------------------------------------------0------|
B|-----8-----8--------7----7------5-----5------3----3------2----2----2-----|
G|------0-----0--------0----0------0-----0------0----0------0----0----0----|
D|---------------------------------------------------------------------0---|
A|--7-----7--------5-----5------3-----3------2----2------1----1---------1--|
E|-------------------------------------------------------------------------|

Verse 3:
e|-------3---------3----------3-----------3---------3-----------3----------|
B|--------3---------3----------3-----------3---------3------(3)--3---------|
G|------------------------(0)-------------------(0)-------0----------------|
D|-------------(0)------0-------------(2)-----2----------------------------|
A|---(2)-----2----------------------3--------------------------------------|
E|-3-----------------------------------------------------------------------|
  Some    say    politician    who    spoke    of    being    free
e|----------2----------2------------2----------2--------3---------3--------|
B|-----------3----------3------(3)---3----------3--------3---------3-------|
G|-----------------(2)-------2-------------(2)----------------(0)----------|
D|-----(0)-------0-----------------------0-----------(2)----2--------------|
A|--0----------------------------------------------3------------------0----|
E|----------------------------------------------------------------------3--|
  He   followed   by   the   masses   to   the   shores   of   Galilee
e|-------3---------3----------3-----------3---------3-----------3----------|
B|--------3---------3----------3-----------3---------3------(3)--3---------|
G|------------------------(0)-------------------(0)-------0----------------|
D|-------------(0)------0-------------(2)-----2----------------------------|
A|---(2)-----2----------------------3--------------------------------------|
E|-3-----------------------------------------------------------------------|
  He  spoke  out  against  corruption,  and  bowed  to  no  decree,
e|----------2----------2------------2----------2--------3---------3--------|
B|-----------3----------3------(3)---3----------3--------3---------3-------|
G|-----------------(2)-------2-------------(2)----------------(0)----------|
D|-----(0)-------0-----------------------0-----------(2)----2--------------|
A|--0----------------------------------------------3------------------0----|
E|----------------------------------------------------------------------3--|
  And they feared his strength and power, so they nailed him to a tree

Break:
e|------------------------------------------------------------------0------|
B|-----8-----8--------7----7------5-----5------3----3------2----2----2-----|
G|------0-----0--------0----0------0-----0------0----0------0----0----0----|
D|---------------------------------------------------------------------0---|
A|--7-----7--------5-----5------3-----3------2----2------1----1---------1--|
E|-------------------------------------------------------------------------|

Verse 4:
e|-------3---------3----------3-----------3---------3-----------3----------|
B|--------3---------3----------3-----------3---------3------(3)--3---------|
G|------------------------(0)-------------------(0)-------0----------------|
D|-------------(0)------0-------------(2)-----2----------------------------|
A|---(2)-----2----------------------3--------------------------------------|
E|-3-----------------------------------------------------------------------|
  Some   say   he   was   a   sorceror,   a   man   of   mystery
e|----------2----------2------------2----------2--------3---------3--------|
B|-----------3----------3------(3)---3----------3--------3---------3-------|
G|-----------------(2)-------2-------------(2)----------------(0)----------|
D|-----(0)-------0-----------------------0-----------(2)----2--------------|
A|--0----------------------------------------------3------------------0----|
E|----------------------------------------------------------------------3--|
  He  could  walk  upon  the  water,  he  could  make  a  blind  man  see
e|-------3---------3----------3-----------3---------3-----------3----------|
B|--------3---------3----------3-----------3---------3------(3)--3---------|
G|------------------------(0)-------------------(0)-------0----------------|
D|-------------(0)------0-------------(2)-----2----------------------------|
A|---(2)-----2----------------------3--------------------------------------|
E|-3-----------------------------------------------------------------------|
  That he conjured wine at weddings, and did tricks with fish and bread
e|----------2----------2------------2----------2--------3---------3--------|
B|-----------3----------3------(3)---3----------3--------3---------3-------|
G|-----------------(2)-------2-------------(2)----------------(0)----------|
D|-----(0)-------0-----------------------0-----------(2)----2--------------|
A|--0----------------------------------------------3------------------0----|
E|----------------------------------------------------------------------3--|
That  he  of  being  born  again  and  raised  people from the dead

Break:
e|------------------------------------------------------------------0------|
B|-----8-----8--------7----7------5-----5------3----3------2----2----2-----|
G|------0-----0--------0----0------0-----0------0----0------0----0----0----|
D|---------------------------------------------------------------------0---|
A|--7-----7--------5-----5------3-----3------2----2------1----1---------1--|
E|-------------------------------------------------------------------------|

Verse 5:
e|-------3---------3----------3-----------3---------3-----------3----------|
B|--------3---------3----------3-----------3---------3------(3)--3---------|
G|------------------------(0)-------------------(0)-------0----------------|
D|-------------(0)------0-------------(2)-----2----------------------------|
A|---(2)-----2----------------------3--------------------------------------|
E|-3-----------------------------------------------------------------------|
  Some  say  he  was  the  Son  of  God,  a  man  above  all  men
e|----------2----------2------------2----------2--------3---------3--------|
B|-----------3----------3------(3)---3----------3--------3---------3-------|
G|-----------------(2)-------2-------------(2)----------------(0)----------|
D|-----(0)-------0-----------------------0-----------(2)----2--------------|
A|--0----------------------------------------------3------------------0----|
E|----------------------------------------------------------------------3--|
  That  he  came  to  be  a  servant  and  to  set  us  free  from  sin
e|-------3---------3----------3-----------3---------3-----------3----------|
B|--------3---------3----------3-----------3---------3------(3)--3---------|
G|------------------------(0)-------------------(0)-------0----------------|
D|-------------(0)------0-------------(2)-----2----------------------------|
A|---(2)-----2----------------------3--------------------------------------|
E|-3-----------------------------------------------------------------------|
  And  that's  what  I  believe  He  is,  cause  that's  what  I  believe
e|----------2----------2------------2----------2--------3---------3--------|
B|-----------3----------3------(3)---3----------3--------3---------3-------|
G|-----------------(2)-------2-------------(2)----------------(0)----------|
D|-----(0)-------0-----------------------0-----------(2)----2--------------|
A|--0----------------------------------------------3------------------0----|
E|----------------------------------------------------------------------3--|
And  I  think  we  should  get  ready  'cause  it's  time  for  us to  leave

Break:
e|------------------------------------------------------------------0------|
B|-----8-----8--------7----7------5-----5------3----3------2----2----2-----|
G|------0-----0--------0----0------0-----0------0----0------0----0----0----|
D|---------------------------------------------------------------------0---|
A|--7-----7--------5-----5------3-----3------2----2------1----1---------1--|
E|-------------------------------------------------------------------------|

Outro:
e|-------3---------3---------3--------3---------3---------3----------3-----|
B|--------3---------3---------3--------3---------3---------3-----(3)--3----|
G|-----------------------(0)--------------------------(0)------0-----------|
D|-------------(0)-----0----------(0)------(2)------2----------------------|
A|---(2)-----2------------------2--------3---------------------------------|
E|-3-----------------------------------------------------------------------|
slowly fade out

============================================================================
            
Submit corrections

comments powered by Disqus
↑ Back to top | Larry Norman Tabs for The Outlaw. Lyrics for acoustic guitar and electric guitar. 1 Tablatures and chords are parodies/interpretations of the original songs. You may use it for private study, scholarship, research or language learning purposes only