>
 >
Room 335

Room 335 Guitar Tabs

Larry Carlton - Room 335 chords, tabs, tablatures, lyrics

Guitar lessons | Add/correct | Request | Top 50 tabs Artists:  A B C D E F G H I J K L M N O P Q R S T U V W X Y Z 0-9

Room 335 Guitar Tabs – Larry Carlton

CD, Sheet music, Poster

Do you like Room 335? Share with your friends now
Tabs
                                   Room 335                                     


                                                                   Larry Carlton
Lead Guitar



       ^      ^                        ^      ^                     
       E   S  S  S S  E   H            E   S  S  S S  E   H         
E||----5------5--L----5---L--------|---2------2--L----4---L--------|
B||----7------7--L----5---L--------|---3------3--L----5---L--------|
G||*---6------6--L----4---L--------|---2------2--L----4---L--------|
D||*--(7)----(7)-L---(2)--L--------|--(4)----(4)-L---(6)--L--------|
A||----5------5--L----4---L--------|---2------2--L----4---L--------|
E||--------------------------------|-------------------------------|


   ^      ^                        ^      ^                       
   E   S  S  S S  E   H            E   S  S  S S  E   H           
---5------5--L----5---L--------|---2------2--L----0---L---------||
---7------7--L----5---L--------|---3------3--L----2---L---------||
---6------6--L----4---L--------|---2------2--L----1---L--------*||
--(7)----(7)-L---(2)--L--------|--(4)----(4)-L---(2)--L--------*||
---5------5--L----4---L--------|---2------2--L----0---L---------||
-------------------------------|--------------------------------||


   ^      ^                                                      
   E   S  S  S S  E   E  S S  S S S  S     Q     S E.  H         
---2------2--L----0---L-----------------|-----------------------|
---3------3--L----2---L-----------------|----------5---L--------|
---2------2--L----1---L---------2-4p-2h-|--4s----6--------------|
--(4)----(4)-L---(2)--L--2-4p-2---------|-----------------------|
---2------2--L----0---L-----------------|-----------------------|
----------------------------------------|-----------------------|


  H        S S   S  S  S S S  S    E.   S S S E  E  Q.      
--------------------------------|--------------------------|
--L-----------------------------|--------------------------|
-----------x-4br-4-(2)-4---2h-4-|--2-----------------------|
-------------------------4------|------/4-L---2--L---------|
--------------------------------|-----------5-------0------|
--------------------------------|--------------------------|


  H        S S S S S S  E      Q     S E.  H         
----------------------------|-----------------------|
----------------------------|----------5---L--------|
-------------------2-4p-2h--|--4s----6--------------|
-------------2-4-2----------|-----------------------|
--L-------------------------|-----------------------|
----------------------------|-----------------------|


               >                                             
   H         S S   S S S S S S    E.   S S S E  E  E   Q     
-------------------------------|----------------------------|
--(5)--------------------------|----------------------------|
---------------4br-L-2-4---2-4-|--2-------------------------|
-------------------------4-----|------/4-L---2--L--4s--7----|
-------------------------------|-----------5----------------|
-------------------------------|----------------------------|


  H        S S S S E  S  S     Q     S E.  H         
----------------------------|-----------------------|
----------------------------|----------8---L--------|
-------------------5--7p-5h-|--7s----9--------------|
--L----------5-7-5----------|-----------------------|
----------------------------|-----------------------|
----------------------------|-----------------------|


           >                                                  
  H        S   S  S. S. S S  S    E  E   E  S S S E  E   E.   
-------------------------------|-----------------------------|
--L----------------------------|-----------------------------|
-----------7br-7p-5--7----5h-7-|--5--------------------------|
------------------------7------|-----5s--7--L---5-L----------|
-------------------------------|--------------8------5s--3---|
-------------------------------|-----------------------------|


   H         S S S S E  S  S     Q     S E.  H         
------------------------------|-----------------------|
------------------------------|----------5---L--------|
---------------------2--4p-2h-|--4----/6--------------|
---------------2-4-2----------|-----------------------|
--(3)-------------------------|-----------------------|
------------------------------|-----------------------|


             >                                         
  H        S S   S  S S S S  S    S. S  S.S S E  Q     
-------------------------------|----------------------|
--L----------------------------|----------------------|
-------------4br-4p-2-4---2h-4-|--2-------------------|
------------------------4------|-----3-/4-L---2--L----|
-------------------------------|------------5---------|
-------------------------------|----------------------|


  Q     E.  S  S S E  Q       Q     E.  S  S  S E  Q       H.           S S E   
---------------------------|----------------------------|----------------------|
---------------------------|----------------------------|----------------------|
--2----/5------------------|--5s----7-------------------|-------------------7--|
------------6-/7---5--L----|------------8s-9----7--L----|--L------------7-9----|
-----------------8---------|-----------------10---------|----------------------|
---------------------------|----------------------------|----------------------|


                W                                                   
  S  E.   Q     Q    S    S   S S       E   Q.     Q    S S   S  S  
------------------------------------|------------------------------|
------------------------------------|------------------------------|
--9b-L---(9)----L----9br-(9)p-7-9br-|--(9)--9------L----L-9br-9p-7-|
------------------------------------|------------------------------|
------------------------------------|------------------------------|
------------------------------------|------------------------------|


  T  T T T E   Q      Q     Q        W                 
---------------------------10----|--10----------------|
-----7--------10----/12----------|--------------------|
--9b---7-L-L---------------------|--------------------|
---------------------------------|--------------------|
---------------------------------|--------------------|
---------------------------------|--------------------|


       |-----3----|      |--3--|          
  Q    E      E   E      Q     E  E   E   
-----------------10--10g12----10--9------|
----------10g12----------------------12--|
-----------------------------------------|
-----------------------------------------|
-----------------------------------------|
-----------------------------------------|


   E      E     Q     E      E     Q       Q    E  S S  Q.     E   
----------------------------------------|-------------------------|
--12br--(12)p--10----12br--(12)p--10----|--9----L------10---------|
----------------------------------------|-------------------------|
----------------------------------------|----------8-9---------9--|
----------------------------------------|-------------------------|
----------------------------------------|-------------------------|


                 W                                                 
   S  E.   Q     H           E    S  S  Q     S  E   S  S   S  E   
--------------------------|---------------------------------------|
-----11----L-----L--------|---------10-10-----L-10--10------------|
--------------------------|--9--/11--------------------11p--9p-7--|
--10----------------------|---------------------------------------|
--------------------------|---------------------------------------|
--------------------------|---------------------------------------|


                                                        |---3---|   
  E    E  H        S S    S   S    E   S S Q    E  E    E   E   E   
--------------------------------|----------------------------------|
--------------------------------|------7-------------------15--17--|
--9br--L--L----------9br-(9)p-7-|--9b----7-L----L--Ls--16----------|
--------------------------------|----------------------------------|
--------------------------------|----------------------------------|
--------------------------------|----------------------------------|


   >                                                                
                                 |-----3----|      |--3--|          
   Q     Q     H            Q    E      E   E      Q     E  E   E   
------------------------|------------------10--10g12----10--9------|
--15----15-----L--------|---L-------10g12----------------------12--|
------------------------|------------------------------------------|
------------------------|------------------------------------------|
------------------------|------------------------------------------|
------------------------|------------------------------------------|


   E      E     Q     S  E      Q       S     E   E  E   E  Q        S   S E   
------------------------------------------|-----------------------------------|
--12br--(12)p--10-----L-12br--(12)p----10-|--10--\8--8p--7--------------------|
------------------------------------------|-----------------9brb----(9)p-7----|
------------------------------------------|--------------------------------9--|
------------------------------------------|-----------------------------------|
------------------------------------------|-----------------------------------|


  W                   W                                         
-------------------|-------------------|-----------|-----------|
-------------------|-------------------|-----------|-----------|
--7----------------|--L----------------|-----------|-----------|
-------------------|-------------------|-----------|-----------|
-------------------|-------------------|-----------|-----------|
-------------------|-------------------|-----------|-----------|


              >                                        >   >                    
  H        E  Q.          E  E  Q     Q     Q        S E.  Q     E  E  E  E     
--------------7br------|--L--5--5~----5~----7b----|--5--------------------7br--|
--------------7br------|--L-----------------------|----5---5/------------------|
-----------------------|--------------------------|----------------------------|
-----------------------|--------------------------|----------------------------|
-----------------------|--------------------------|----------------------------|
-----------------------|--------------------------|----------------------------|


         >                           
  E   E  S   E.   Q     S   E   S    
--7p--5--9s-12---12~----9h-12-------|
-------------------------------12br-|
------------------------------------|
------------------------------------|
------------------------------------|
------------------------------------|


    slow release                                                            
                                                     >                      
    Q           E.   T   S   S  T  E    Q       Q    Q      E  Q    T T  S  
---------------------------------------------|-------7br----L--5----5------|
--(12)--------------10h-12p-10----10~--------|--5---------------------7p-5-|
----------------L--------------11-------L----|-----------------------------|
---------------------------------------------|-----------------------------|
---------------------------------------------|-----------------------------|
---------------------------------------------|-----------------------------|


  E  E    Q      H             E  Q.      S  S S  S E    E   
--5--5--<>7b----(7)~--------|--L--7b------Lp-5------7br--L--|
----------------------------|------------------7p-5---------|
----------------------------|-------------------------------|
----------------------------|-------------------------------|
----------------------------|-------------------------------|
----------------------------|-------------------------------|


                                                   >    >               
  E.   S S  S S. T   E.   S   Q        E.    S  S  E.   E.    S  Q      
--Lp---5------5---------------------|----------12-14---12~---12--L\----|
---------7p-5----8-/10---10~--Ls----|--3/---14-------------------------|
------------------------------------|----------------------------------|
------------------------------------|----------------------------------|
------------------------------------|----------------------------------|
------------------------------------|----------------------------------|


        >         >                                       >    >         
                  |---3---|                                              
  Q     E     E   S   S   S  E   Q       Q      S  S  E   E.   S  Q      
--------------------------------------|-----------12-14--12---12--L\----|
-------14br---L--12h-14p-12--L--------|--8s----14-----------------------|
--------------------------------14----|---------------------------------|
--------------------------------------|---------------------------------|
--------------------------------------|---------------------------------|
--------------------------------------|---------------------------------|


      >             >      >      >                                            
                    |------3------|         |-------3------|                   
  E   E     E.   S  Q      Q      Q         E    E   Q     Q      Q      Q     
----------------------------------------|-------------------------------12----|
-----15br---L----L-15b----15b----15b----|--13s--14--10----10s----12b----------|
----------------------------------------|-------------------------------------|
----------------------------------------|-------------------------------------|
----------------------------------------|-------------------------------------|
----------------------------------------|-------------------------------------|


                                                            >             
   |-----3----|      |--3--|                     |-3-|                    
   H          Q      Q     H              Q      E   Q      E   E   Q     
---L~---------------------17~--------|--(17)-----L--17b----17---L--17----|
-------------17s----19---------------|-----------------------------------|
-------------------------------------|-----------------------------------|
-------------------------------------|-----------------------------------|
-------------------------------------|-----------------------------------|
-------------------------------------|-----------------------------------|


   H          S   S   S  S   S   S  S   S  
---L~------------------------------15s-17-|
------------------------15h-16h-17--------|
-------------14h-16h-17-------------------|
------------------------------------------|
------------------------------------------|
------------------------------------------|


   >                                              
   Q      E    E     S  S   S   S  S   S  S   S   
--20~-----L--(20)\-------------------------------|
-----------------------------------------13h-15h-|
----------------------------------12h-14---------|
-----------------------12h-14h-15----------------|
--------------------15---------------------------|
-------------------------------------------------|


                         H                                              
   Q.       E    E   E   E    E      E   E    E   E   E    E   E   E    
---------------------------------|--12-----------12-----------15-------|
--13~------11s--12--15--12h--13--|------13s--15------15s--17------17s--|
---------------------------------|-------------------------------------|
---------------------------------|-------------------------------------|
---------------------------------|-------------------------------------|
---------------------------------|-------------------------------------|


                                               >             >  >    >       
   E   E   E    E   S   S    E   S   S  E      Q      Q      S  E.   Q       
------17-----------17h-19br--L---Lp-17-----|--17~----19b----17--------------|
--18------18s--19----------------------19--|-------------------17---17\~----|
-------------------------------------------|--------------------------------|
-------------------------------------------|--------------------------------|
-------------------------------------------|--------------------------------|
-------------------------------------------|--------------------------------|


            ^  ^   ^   ^                                        
  H         E  E   E   E      E  E   E    E   E    E   E    E   
-----------10--9--10--11--|--12----------12--------------------|
--------------------------|---------12b------12~---Ls--9s--14--|
--------------------------|------9-----------------------------|
--------------------------|------------------------------------|
--------------------------|------------------------------------|
--------------------------|------------------------------------|


   E    E   S  S  E   E    E    E   E     
--14s--15--14-13---------------15--------|
---------------------13h--15b------15b~--|
-----------------14----------------------|
-----------------------------------------|
-----------------------------------------|
-----------------------------------------|


                       T          T          T                             
       |--3--|                                                             
   E   S  S  S  S   S  S   S  E   S   S  E   S   S     Q      S  S  S  S   
---------------12s-14-17p-14--L--17p-14--L--17p-13-|---L~-----------------|
---------12-15-------------------------------------|---------------15-17b-|
------12-------------------------------------------|---------14-16--------|
--14-----------------------------------------------|----------------------|
---------------------------------------------------|----------------------|
---------------------------------------------------|----------------------|


         >                         
    E    E.   E.   E.     E   E.   
--------17~-------17br----L--15---|
--(17)----------------------------|
----------------------------------|
----------------------------------|
----------------------------------|
----------------------------------|


   >              >                   >                  
   |---3---|      |---3---|           |---3---|          
   S   S   S  E   S   S   S   E   E   S   S   S  E   E   
--14h-15p-14--------------------------------------------|
-------------17--15h-17p-15-\14-------------------------|
---------------------------------16--15h-16p-15-12--11--|
--------------------------------------------------------|
--------------------------------------------------------|
--------------------------------------------------------|


                                   >        >     
   E   S  S  S S.  S   S  S. S  S  S    S   S  S  
----------------------------------17p-(12)-14----|
----------------------------14-17-------------15-|
------11-----------------14----------------------|
--14-----12--L----15s-16-------------------------|
-------------------------------------------------|
-------------------------------------------------|


   >            >            >                            
                                                 |--3--|  
   S  S   S  S  S   S  S  S  S  S  S  S  S   S   S  S  S  
--12-----------------------------------------------------|
-----13p-12----15p-12------------------------------------|
------------14--------12----14-11---------------------11-|
-------------------------14-------12---------------12----|
-------------------------------------14-12h-13h-14-------|
---------------------------------------------------------|


   >                    >          >          >             
   S   S     S  S S  S  S   S   S  S   S   S  S   S   S  S  
--------------------14-17p-15p-14--------------------------|
---------------12-x---------------17p-15p-14---------------|
--14p-11-11g12-------------------------------16p-15p-14----|
--------------------------------------------------------16-|
-----------------------------------------------------------|
-----------------------------------------------------------|


                              >     >                   
   S   S   S  S  S   S  S  S  S  S  S   S  S   S  S  S  
-------------------------------------------------------|
-------------------------------------------------19-21-|
--13h-14p-13--------------14-17-16-18p-16-18s-20-------|
-------------16-14p-13-16------------------------------|
-------------------------------------------------------|
-------------------------------------------------------|


       ^   ^   ^   ^   >                 >               >               
   E   E   E   E   E   S  S  S  E.       E.   S   E   S  S   Q.      E   
--19------------------16-17--L-19b---|--18---17p-15---------------------|
--------------17--19-----------------|---------------18-17~-17\---------|
------16--18-------------------------|----------------------------------|
-------------------------------------|----------------------------------|
-------------------------------------|----------------------------------|
-------------------------------------|----------------------------------|


  Q     E.    S  Q     E   E       E   E   S   S  S   S  E   E   E    S  S  
-------19b---19-17----14-------|------14--15p-14-----14-15--14-------14----|
--------------------------17b--|---L-------------17b------------17b-----15-|
-------------------------------|-------------------------------------------|
-------------------------------|-------------------------------------------|
-------------------------------|-------------------------------------------|
-------------------------------|-------------------------------------------|


                            >              >         
    E     E     E     E     S  S  S  S  S  S   S  S  
---------------------------------------14-17p-15----|
--(15)~-----------------------14-15-17-----------17-|
---------16~--(16)s--(9)--/16-----------------------|
----------------------------------------------------|
----------------------------------------------------|
----------------------------------------------------|


      >               >                               
   S  S   S  S  S  S  S  S   S  S  S  S  S  S   S  S  
--14-15p-14---------------------------------------17-|
------------17-15-14-18-16p-15----------15-17s-19----|
-------------------------------17-16-17--------------|
-----------------------------------------------------|
-----------------------------------------------------|
-----------------------------------------------------|


   ^   ^   ^   ^   ^   ^   ^      >            ^   ^   ^   ^   ^      >   
   E   E   E   E   E   E   E   S  S      Q     E   E   E   E   E   S  S   
--19--22--17--22--21--19--17--19-17~-|---L----19--20--19--17------17-----|
-------------------------------------|------------------------19-----20~-|
-------------------------------------|-----------------------------------|
-------------------------------------|-----------------------------------|
-------------------------------------|-----------------------------------|
-------------------------------------|-----------------------------------|


       ^   ^   ^                               >                 
                              |---3--|                           
   E   E   E   E   E.      S  S  S   S  E      W                 
-------------------------------------------|--------------------|
---L--19--17--15--17brb----L--L--Lp-15-----|--15----------------|
---------------------------------------16--|--------------------|
-------------------------------------------|--------------------|
-------------------------------------------|--------------------|
-------------------------------------------|--------------------|


   W                    W                                     
--------------------|--------------------|-------------------|
---L----------------|---L----------------|-------------------|
--------------------|--------------------|-------------------|
--------------------|--------------------|-------------------|
--------------------|--------------------|-------------------|
--------------------|--------------------|-------------------|


-------------------|-------------------|-------------------|
-------------------|-------------------|-------------------|
-------------------|-------------------|-------------------|
-------------------|-------------------|-------------------|
-------------------|-------------------|-------------------|
-------------------|-------------------|-------------------|


                                                 ^     
                                      |-----3----|     
   W                      H           Q     Q    Q     
--10b----------------|--(10)~---------L----10----9----|
---------------------|--------------------------------|
---------------------|--------------------------------|
---------------------|--------------------------------|
---------------------|--------------------------------|
---------------------|--------------------------------|


   Q       Q      Q     Q          E.   S  E  E    E.   S    E   E   
-----------------------------|--------------------------------------|
--10br-----L~-----L\---------|---------10--L-----------17br--L---L--|
------------------------9----|--9g11----------9s--13----------------|
-----------------------------|--------------------------------------|
-----------------------------|--------------------------------------|
-----------------------------|--------------------------------------|


                            >                                            
                                                          |-----3----|   
    H          E      Q     E       Q       Q      Q      E    E     E   
------------------12g14----17--|--(17)~---------------------------------|
--(17)~------------------------|-----------17b-----L~-----L--(17)p--15--|
-------------------------------|----------------------------------------|
-------------------------------|----------------------------------------|
-------------------------------|----------------------------------------|
-------------------------------|----------------------------------------|


  E   E     S   E.     Q.     E      E  Q      E   Q.         S    S  
---------------------------------|------9br----L---------------------|
-----12br---L-(12)~----L---------|----------------12br------(12)p-10-|
------------------------------9--|--11-------------------------------|
---------------------------------|-----------------------------------|
---------------------------------|-----------------------------------|
---------------------------------|-----------------------------------|


                     >                                                     
   E  E   Q     S  S Q       E       E     Q     E   E   S   S   E     E   
------9--------------6br----(6)h--|--5------------------12s-14-(14)p--12--|
--12-----10-----Ls-6--------------|-----7g10----10p--9--------------------|
----------------------------------|---------------------------------------|
----------------------------------|---------------------------------------|
----------------------------------|---------------------------------------|
----------------------------------|---------------------------------------|


    Q.        E  S  S S    S   E   E       E   E.   E    S  S. E   E   S. S  
--(12)\~--------------5----------------|-------------------12-14--12-----12-|
-----------------5h-7---7g10~--L--10~--|---Ls--5s---7s--14------------15----|
---------------------------------------|------------------------------------|
---------------------------------------|------------------------------------|
---------------------------------------|------------------------------------|
---------------------------------------|------------------------------------|


                                  |----3---|      
       E   E   E   E   E.      S  S   S    S  E   
-------------------------------------------------|
--/13g14----------17-----------------------------|
--------------16------16brb----L--L-(16)p-14-----|
----------14---------------------------------16--|
-------------------------------------------------|
-------------------------------------------------|


   Q     Q       S   E.    Q        Q        E.     S   Q.       E   
--------17br-----Lp-16~----L----|-----------------------------------|
--------------------------------|--19br----(19)s---17~-17~------14--|
--14----------------------------|-----------------------------------|
--------------------------------|-----------------------------------|
--------------------------------|-----------------------------------|
--------------------------------|-----------------------------------|


   E    E   S.  T  E  E   E   E   E     
-----------14s-12s-9--L--10--12--------|
--15h--17------------------------12br--|
---------------------------------------|
---------------------------------------|
---------------------------------------|
---------------------------------------|


                              >                
    |-----3-----|                              
    E     E     E    E.  E.   E.     S.    S.  
-------------------------9--------------------|
--(12)--(12)p--10h--12-------10~---(10)s-(15)-|
----------------------------------------------|
----------------------------------------------|
----------------------------------------------|
----------------------------------------------|


                   >        >           >                  >         >       
  E    E   E   E   E.    S  E    E      S   S  E   E   E   E    E.   S   E   
-----/14--17--14--17b---17-17~------|---------------------------------------|
------------------------------------|---------17----------------------------|
--------------------------------14--|--16b--L-----14------14h--16---14~--L--|
------------------------------------|-----------------16--------------------|
------------------------------------|---------------------------------------|
------------------------------------|---------------------------------------|


           >       >     >            
  E    E   E   E   E.    S   E  S  S  
-----/14--17--14--17b---17~--L----14-|
-------------------------------------|
-------------------------------------|
-------------------------------------|
-------------------------------------|
-------------------------------------|


   E    E   S  S  S  S   S  S  S  S  S   S   S  S  
-------14-----------------------------------------|
--17b------17-14-------------------------------17-|
-----------------17-16p-14----16----14h-16h-18----|
---------------------------16----16---------------|
--------------------------------------------------|
--------------------------------------------------|


          >                                                               
  E   E   E   E      E.   S   E   E      E.   S  E   E   Q        Q       
-----14--17--14--14g16-----------16--|--14----------14-------------------|
-------------------------17~--L------|-------15--L------17br----(17)~----|
-------------------------------------|-----------------------------------|
-------------------------------------|-----------------------------------|
-------------------------------------|-----------------------------------|
-------------------------------------|-----------------------------------|


                 >  >             >   >  >      
                                      |---3--|  
  E   E    S  S  S  S   E   S  S  E   S  S   S  
-------------17-19-19p-17--------19--19-19p-17-|
-----12s--19---------------19-17---------------|
-----------------------------------------------|
-----------------------------------------------|
-----------------------------------------------|
-----------------------------------------------|


               >   >  >             >      
    E    S  S  E   S  S   E   S  S  Q      
--(17)--------19--19-19p-17--------19b----|
--------19-17----------------19-17--------|
------------------------------------------|
------------------------------------------|
------------------------------------------|
------------------------------------------|


                                            Slow Bend                         
                      >                                            >          
    E     S    S  E   E   Q      E   E      Q         E   E   E    E    Q     
--(19)--(19)p-17-19--17--17~--------17--|--19b-------17----------------------|
--------------------------------19------|----------------19--17b--17~---L----|
----------------------------------------|------------------------------------|
----------------------------------------|------------------------------------|
----------------------------------------|------------------------------------|
----------------------------------------|------------------------------------|


    E     E     S  S  S  S   S  S  E   E   S  S  
---------------------17-19b--L-19--L--17--------|
--(17)s--(9)s--17-19----------------------19-17-|
------------------------------------------------|
------------------------------------------------|
------------------------------------------------|
------------------------------------------------|


   S  S   S  S  E    S  S  S   S  S   S   S  S  S  S  
--17-------------------17----------------------------|
-----19p-17---------17----20p-17---------------------|
------------19-19b---------------20p-19p-17----19----|
--------------------------------------------19----19-|
-----------------------------------------------------|
-----------------------------------------------------|


                               H sl.                    
   >                                    >               
   S   S  S  S  S  S   S   S   S     S  E    E   S   S  
---------------------------------------16~---L---------|
-------------------------------------------------------|
--17h-18----------16------16h-17s---18----------17s-18-|
---------19-16-19----(19)------------------------------|
-------------------------------------------------------|
-------------------------------------------------------|


   >                                            
                  3  3  3   3                   
   Q      E.      S  S  T   E   S   S  E.    S  
--14~------------------------------------------|
--------------------------------------------14-|
---------16brb----L--L--Lp-14---------16b------|
-------------------------------16p-14----------|
-----------------------------------------------|
-----------------------------------------------|


    P   H         P H           P      P            P         
                                           >                  
   S      S   S  S    S   S  S  S   S  S   S  S  S  S   S  S  
-------------------------------------------------------------|
-------------------------------------------------------------|
--17p----16p-14-------------14-16p-14-----------14-16p-14----|
----------------16p--14h-16-----------16p-14-16-----------16-|
-------------------------------------------------------------|
-------------------------------------------------------------|


            P         H         sl.         P          
   >                  >                          >     
   S  S  S  S   S  S  S   S  S  S   S  S  S   S  S  S  
------------------------------------------------------|
--------------------------------------17-19p-17-19-19-|
--------14-16p-14-----------14-16s-18-----------------|
--14-16-----------16-14h-16---------------------------|
------------------------------------------------------|
------------------------------------------------------|


                              H                               H          
   S  S  S  S   S  E.   Q     S.  S. S     Q     Q      Q     S   S  E   
---------------------------------------|--------------------------------|
--17-17--------------------------------|--15----------------------------|
--------19-17b--L-17---17-----------14-|--------16b----14-----------14--|
-----------------------------14h-16----|---------------------14h-16-----|
---------------------------------------|--------------------------------|
---------------------------------------|--------------------------------|


                          H      H       
   E.   S   Q      Q      S   S  S   S   
--17------------------------------------|
-------17b--L----(17)-------------------|
--------------------------------14h-16b-|
-------------------------14h-16---------|
----------------------------------------|
----------------------------------------|


           P                  H            P       P P     
    S   S  S   S  S  S  S  S  S   S  S  S  S   S  S    S   
----------------------------------------------------------|
-------14-17p-14-----------------------14-17p-14----------|
--(16)-----------17-16-14----14h-16-17-----------17p--16h-|
--------------------------16------------------------------|
----------------------------------------------------------|
----------------------------------------------------------|


           H   H           P      P              P      H    
         >                                  >  >             
   S  S  S       S   S  S  S   S  S   S  S  S  S   S  S   S  
------------------------------------------------------------|
-----------------------14-17p-14----------------------------|
--14----14h-----16h-17-----------17p-16-14----16p-14-16h-17-|
-----16------------------------------------16---------------|
------------------------------------------------------------|
------------------------------------------------------------|


        P                  P                  P       
   S  S   S  S  S  S  S  S   S  S  S  S  S  S   S  S  
-----------------------------------------------------|
--14-17p-14------------------------------------------|
------------17-16-14----16p-14----------14-16p-14----|
---------------------16--------16-14-16-----------16-|
-----------------------------------------------------|
-----------------------------------------------------|


     H         sl.                  H         P          
   S   S  S  S     S  S  S  S  S  S   S  S  S   S  S  S  
---------------------------17-----------16--------------|
---------------------17-19----19-17h-19----17p-14-15-17-|
---------14-16s---18------------------------------------|
--14h-16------------------------------------------------|
--------------------------------------------------------|
--------------------------------------------------------|


                        P   P                      sl.            
      T   T    S  S  S        S   S  S  S  S  S  S     S  S  E.   
-----------------------------------------------------------------|
---xg14----------14--------------------------------------17-19---|
--------(16)s-17----17p------15p-14----------14-16s---18---------|
------------------------------------16-14-16---------------------|
-----------------------------------------------------------------|
-----------------------------------------------------------------|


    sl.                          sl.                     
    E.    S  S  S  E    Q        E.    S  S  S E   Q     
--/17------------------------|--/8----------------------|
--------/19--L----17~---L----|-------/10--L----8~--L----|
---------------19------------|--------------10----------|
-----------------------------|--------------------------|
-----------------------------|--------------------------|
-----------------------------|--------------------------|


    sl.                        
    E.    S  S  S  E    Q      
--/10------------------------||
--------/12--L----10~---L----||
---------------12------------||
-----------------------------||
-----------------------------||
-----------------------------||




Duration Legend
---------------
W - whole
H - half
Q - quarter
E - 8th
S - 16th
T - 32nd
X - 64th
. - note dotted
|-n-|  - n-tuplets


Tablature Legend
----------------
L - tied note
x - dead note
g - grace note
(n) - ghost note
> - accentuded note
NH - natural harmonic
AH - artificial harmonic
TH - tapped harmonic
SH - semi harmonic
PH - pitch harmonic
h - hammer on
p - pull off
b - bend
br - bendRelease
pb - preBend
pbr - preBendRelease
brb - bendReleaseBend
\n/ - tremolo bar dip
\n - tremolo bar dive
-/n - tremolo bar Release up
/n\ - tremolo bar inverted dip
/n - tremolo bar return
-\n - tremolo bar Release down
S - shift slide
s - legato slide
/ -  slide into from below or out of upwards
\ -  slide into from above or out of downwards
~ - vibrato
W - wide vibrato
tr - trill
TP - tremolo picking
T - tapping
S - slap
P - pop
< - fade in
^ - brush up
v - brush down





Comments


Popular Larry Carlton tabs & chords
Smiles And Smiles To Go Chords
Bubble Shuffle Tabs
Dont Give It Up Tabs
Last Nite Intro Tabs
Smiles And Smiles To Go Ukulele


Song lyrics



↑ Back to top | Tablatures and chords are parodies/interpretations of the original songs. You may use it for private study, scholarship, research or language learning purposes only
© 2014 AZChords.com Contact us | Privacy policy | DMCA | Add/correct tabs | Request tabs | Top 50 tabs