» » »

Larry And His Flask, Marked From The Stark Chords (ver.1)

Artists:  A B C D E F G H I J K L M N O P Q R S T U V W X Y Z # 

Marked From The Stark Chords (ver.1)

Larry And His Flask Tabs
 Rating:
4.2/5 (5 votes)
Marked From The Stark lessons Tabs too difficult? Try these video lessons and learn fast
                -------------------------------------------------------------------------------
-------------------------------------------------------------------------------


Tuning: Standard

INTRO:
E

    E (strum pattern) 
e|-0X0X00--------------------------|----------------|-------------------|
B|-0X0X00-------5-4-3----5-4-3-----|----------------|--4-3-4-5-6-5-4-3--|
G|-1X1X11-------------4--------4---|----------------|-------------------|
D|-2X2X22--------------------------|--2-1-----------|-------------------|
A|-2X2X22--------------------------|------3-2-0-----|-------------------|
E|-0X0X00--------------------------|------------4~--|-------------------|


VERSE:
A           Bb     A          C    B
Cloth me in linen, roll me in as - sh
      A                                Bb
For a time they have sinned and you're all born again
          A                      C     B       E
But we've all been living in the pa - a - ast


HOOS/HAAS:
A        Bb        A       C  B
Hoooo    Haaaaa,   Hoooo   Haaaa   x2



CHORUS:
E              Am         E                        Am
Handle us with care, our souls are so fragile they crumble and tear
      E                               Am                            
We're marked from the stark the first beat of your heart
        Eb      F    E
tell me is that even fair


REPEAT INTRO


VERSE:
A            Bb       A                              C            B
Help me understand, I fought and I fought could you please lend a hand
   A                        Bb
We kill and we steal in the name of our god
      A                     C      B    
Don't worry it's part of the pla - a - an


Guitar Solo part:
e|---------------------------------------|-----------------------------------|
B|---------------------------------------|--------------5/6------------------|
G|---------------------------------------|--------7/9-5-5/6------------------|
D|---------------------------------------|----6-7-------5/6------------------|
A|--------------0-2-33-33-3-2-2h3p2p0----|--7-----------3/4------------------|
E|-0-0-00-0-0-4-----------------------0--|-----------------------------------|


INSTRUMENTAL:
Cm  Fm   x4
Ab A  B


CHORUS:
E              Am         E                        Am
Handle us with care, our souls are so fragile they crumble and tear
      E                               Am                            
We're marked from the stark the first beat of your heart
        Eb      F    E
tell me is that even fair

BRIDGE: (I'm not sure what to call these chords so...)

    Em1  Em2  Em3
e|------------7-----|
B|--8----10--(8)----|
G|--9----9----9-----|
D|--9----9----9-----|
A|--7----7----7-----|
E|------------------|

Em1           Em2        Em3         Em2
Where will we go, at the end of this night
        Em1         Em2          Em3           Em2
Will we stay in the dark, or be shown a loving light
     Em1               Em2             Em3         Em2
     Em1          Em2      Em3      D     E
Just fragments of joy, in harmonic swell - ell - ell - ell


CHORUS:
E              Am        E                           Am
Handle us with care, our souls are so fragile they crumble and tear
       E                              Am
We're marked from the stark the first beat of your heart
        Eb      F      Eb     F              Eb    F   E
Tell me is that even, is that even, tell me is it even fair


REPEAT INTRO

END!!!
            
Submit corrections

comments powered by Disqus
↑ Back to top | Larry And His Flask Chords for Marked From The Stark. Lyrics for acoustic guitar and electric guitar. Tablatures and chords are parodies/interpretations of the original songs. You may use it for private study, scholarship, research or language learning purposes only