» » »

Manifest Destiny Chords (ver.1)

Artists:  A B C D E F G H I J K L M N O P Q R S T U V W X Y Z # 

Manifest Destiny Chords (ver.1)

Larry And His Flask
Rating:
5/5 (1 vote)

Hard to play? Try these video lessons and learn fast.
                -------------------------------------------------------------------------------
-------------------------------------------------------------------------------


Tuning: Standard CAPO I


Bass Intro: (relative to capo)
G|---------------------------|
D|-----------------0---0-2---|
A|------------2--2---2-------|
E|--0--0-0--0----------------|


INTRO:
Em          x2
Em  Bm  D   X4

Guitar Solo Intro: (relative to capo)
e|---------------------------------------------------------------------------|
B|-----------------------------------1p0-------------------------------------|
G|---------------------------------------2p0---------------------------------|
D|--2~-2-0-------------------2---------------4-2p0------------2-2-2p1h2-5-4--|
A|---------3p2--2-0------------3-2-----------------3-2p0---------------------|
E|------------------3-2~-0------------------------------3-2------------------|
                                                Em
  ----------------------------------------------0~---|
  ----------------------1p0---------------------0~---|
  --------------------------2p0-----------------0~---|
  --4-4-4p2h4-7-5~-4-2----------4-2p0-----------2~---|
  ------------------------------------3-2p0-----2~---|
  ------------------------------------------3-2p0~---|

VERSE:
Em                      Bm   D
I've crossed all those lines
Em                Bm       D
They don't mean a thing to me
Em                     Bm     D
I've crossed all those borders
Em                     Bm            D
They keep you captive, they take you prisoner

Em                     Bm    D
This is a waste station for our lives (for our lives)
Em                   Bm         D
Out travelling in the dark (the dark tonight)
Em                 Bm    D
I went under their knife
Em                Bm   D
I hope I can be strong


CHORUS:
Em  C        G      B
Manifest Destiny  (Destiny)    x4


Repeat Intro Solo
Em  Bm D    x4

VERSE:
Em                  Bm   D
These horses ride tonight
Em                 Bm             D
The wolves are out, looking for a fight (looking for a fight)
Em           Bm 'STOP'
But we won't stop   (We won't stop)
Em                        Bm   D
Until we take care of our lives

Em                  Bm   D
You won't see me for long
Em                      Bm            D
Cause I got my boys to pick me up and take me home
Em                     Bm            D
I won't let you fall my brothers and sisters
Em                     C      B
I'll be there when you call - all

CHORUS:
Em  C        G      B
Manifest Destiny  (Destiny)    x4


Repeat Solo:
Em   Bm D   x4


CHORUS:
Em  C        G      B
Manifest Destiny  (Destiny)    x4

Em


END!!!
            
Hard to play? Try these video lessons and learn fast. | Correct




comments powered by Disqus
↑ Back to top | Tablatures and chords are parodies/interpretations of the original songs. You may use it for private study, scholarship, research or language learning purposes only